» » »

Hillsong London, Follow The Son Bass tabs (ver.1)

Artists:  A B C D E F G H I J K L M N O P Q R S T U V W X Y Z # 

Follow The Son Bass tabs (ver.1)

Hillsong London Tabs
 Rating:
4.6/5 (9 votes)
Follow The Son lessons Tabs too difficult? Try these video lessons and learn fast
                -------------------------------------------------------------------------------
			     FOLLOW THE SON – Hillsong London
-------------------------------------------------------------------------------


Tuning: Standard

Intro/Verse:

G|---------------------------------------------------------------------------|
D|---------------------------------------------------------------------------|
A|-7-7-5-5-7-7-0-0---------5-5-5-5--7-7-5-5-7-7-0-0---------5-5-5-5----------|
E|-----------------3-3-3-3--------------------------3-3-3-3------------------|

G|---------------------------------------------------------------------------|
D|--------------------------------------------------5-5-5-5------------------|
A|-7-7-5-5-7-7-0-0---------5-5-5-5--7-7-5-5-7-7-0-0---------5-5-5-5----------|
E|-----------------3-3-3-3---------------------------------------------------|

Pre-Chorus:

G|----------------------------------|
D|----------------------------------|
A|-----------------5-5-5-5-7777777--|
E|-5-5-5-5-3-3-3-3------------------|

Chorus:

G|---------------------------------------------------------------------—-----|
D|------------------------------------------------------------------7-5--7-5-|
A|-33333333----------55555555-77775555--33333333----------55555555-5---55----|
E|----------33333333-----------------------------33333333--------------------|

G|---------------------------------------------------------------------------|
D|---------------------------------------------------------------------------|
A|-33333333----------55555555-77775555--33333333—--5-3-333333/15-15-15-15-15-|
E|----------33333333-----------------------------3---------------------------|

G|---------------------------------------------------------------------------|
D|-------------------------5555------------------5555---------------5555-----|
A|-15-15-15----77----55-77------5555-77----55-77------5555-77----55------5555|
E|----------------77--------------------77--------------------77-------------|
 (You’re everything to me...)

Verse
Pre-Chorus
Chorus

Bridge:

G|----------------------------------------|
D|----------------------------------------|
A|-33333333--------55-33333333-777777-55--|
E|----------333333------------------------|(x2)

Pre-Chorus (x2)
Chorus (x2)

That’s all... =)
There are some variations in the way they play the last two pre-chorus and chorus, but 
shouldn’t be too hard to figure out yourself... >.<

| /  slide up
| \  slide down
| h  hammer-on
| p  pull-off
| ~  vibrato
| +  harmonic
| x  Mute note
===============================================================================
            
Submit corrections

comments powered by Disqus
↑ Back to top | Hillsong London Bass for Follow The Son. Lyrics for acoustic guitar and electric guitar. Tablatures and chords are parodies/interpretations of the original songs. You may use it for private study, scholarship, research or language learning purposes only