>
 >
Voice Of The Voiceless

Voice Of The Voiceless Bass Tabs

Heaven Shall Burn - Voice Of The Voiceless chords, tabs, tablatures, lyrics

Guitar lessons | Add/correct | Request | Top 50 tabs Artists:  A B C D E F G H I J K L M N O P Q R S T U V W X Y Z 0-9

Voice Of The Voiceless Bass Tabs – Heaven Shall Burn

CD, Sheet music, Poster

Do you like Voice Of The Voiceless? Share with your friends now
Bass TabsBass Tabs v2Tabs
                            Voice Of The Voiceless                              


                                                               Heaven Shall Burn
Bass
Have fun!!!



     H        H           E  E  E  E  E  E  E  E     E  E  E  E  E  E  E  E   
F||--------------------|--------------------------|--------------------------|
C||--------------------|--------------------------|--------------------------|
G||--------------------|--------------------------|--------------------------|
C||--------------------|--0--0--3--3--0--0--2--2--|--0--0--5--5--0--0--3--3--|


  E  E  E  E  E  E  E  E     E  E  E  E  E  E  E  E   
--------------------------|--------------------------|
--------------------------|--------------------------|
--------------------------|--------------------------|
--0--0--3--3--0--0--2--2--|--1--1--0--0--2--2--3--3--|


  E  E  E  E  E  E  E  E     E  E  E  E  E  E  E  E   
--------------------------|--------------------------|
--------------------------|--------------------------|
--------------------------|--------------------------|
--0--0--3--3--0--0--2--2--|--0--0--5--5--0--0--3--3--|


  E  E  E  E  E  E  E  E     E  E  E  E  E  E  E  E     Q    E  E  Q    Q     
--------------------------|--------------------------|-----------------------|
--------------------------|--------------------------|-----------------------|
--------------------------|--------------------------|-----------------------|
--0--0--3--3--0--0--2--2--|--1--1--0--0--2--2--3--3--|--0----3--3--0----2----|


  Q    E  E  Q    Q       Q    E  E  Q    Q       Q    E  E  Q    Q     
-----------------------|-----------------------|-----------------------|
-----------------------|-----------------------|-----------------------|
-----------------------|-----------------------|-----------------------|
--0----5--5--0----3----|--0----3--3--0----2----|--1----0--0--2----3----|


  Q    E  E  Q    Q       Q    E  E  Q    Q       Q    E  E  Q    Q     
-----------------------|-----------------------|-----------------------|
-----------------------|-----------------------|-----------------------|
-----------------------|-----------------------|-----------------------|
--0----3--3--0----2----|--0----5--5--0----3----|--0----3--3--0----2----|


  E  Q    H        E     Q    E  E  Q    Q       Q    E  E  Q    Q     
----------------------|-----------------------|-----------------------|
----------------------|-----------------------|-----------------------|
----------------------|------------------1----|-------------3----1----|
--0-------------------|--0----2--2--3---------|--5----3--3------------|


  Q    E  E  Q    Q       Q    E  E  H           Q    E  E  Q    Q     
-----------------------|----------------------|-----------------------|
-----------------------|----------------------|-----------------------|
------------------1----|----------------------|------------------1----|
--0----2--2--3---------|--3----3--3-----------|--0----2--2--3---------|


  Q    E  E  Q    Q       Q    E  E  Q    Q       Q    E  E  H         
-----------------------|-----------------------|----------------------|
-----------------------|-----------------------|----------------------|
-------------3----1----|------------------1----|----------------------|
--5----3--3------------|--0----2--2--3---------|--0----2--2-----------|


  E  E  E  E  E  E  E  E     E  E  E  E  E  E  E  E   
--------------------------|--------------------------|
--------------------------|--------------------------|
--------------------------|--------------------------|
--0--0--3--3--0--0--2--2--|--0--0--5--5--0--0--3--3--|


  E  E  E  E  E  E  E  E     E  E  E  E  E  E  E  E   
--------------------------|--------------------------|
--------------------------|--------------------------|
--------------------------|--------------------------|
--0--0--3--3--0--0--2--2--|--1--1--0--0--2--2--3--3--|


  E  E  E  E  E  E  E  E     E  E  E  E  E  E  E  E   
--------------------------|--------------------------|
--------------------------|--------------------------|
--------------------------|--------------------------|
--0--0--3--3--0--0--2--2--|--0--0--5--5--0--0--3--3--|


  E  E  E  E  E  E  E  E     E  E  E  E  E  E  E  E   
--------------------------|--------------------------|
--------------------------|--------------------------|
--------------------------|--------------------------|
--0--0--3--3--0--0--2--2--|--1--1--0--0--2--2--3--3--|


  E  E  E  E  E  E  E  E     E  E  E  E  E  E  E  E   
--------------------------|--------------------------|
--------------------------|--------------------------|
--------------------------|--1--1--1--1--------------|
--0--0--0--0--3--3--2--2--|--------------5--5--3--3--|


  E  E  E  E  E  E  E  E     E  E  E  E  E  E  E  E   
--------------------------|--------------------------|
--------------------------|--------------------------|
--3--3--3--3--------------|--------------------------|
--------------2--2--3--3--|--0--0--7--7--0--0--2--2--|


  E  E  E  E  E  E  E  E     E  E  E  E  E  E  E  E   
--------------------------|--------------------------|
--------------------------|--------------------------|
--------------------------|--1--1--1--1--------------|
--0--0--0--0--3--3--2--2--|--------------5--5--3--3--|


  E  E  E  E  E  E  E  E     E  E  E  E  E  E  E  E   
--------------------------|--------------------------|
--------------------------|--------------------------|
--3--3--3--3--------------|--------------------------|
--------------2--2--3--3--|--0--0--7--7--0-----------|


  E  E  E  Q     E  E   E     E  E  E  Q    E  E  E   
---------------------------|-------------------------|
---------------------------|-------------------------|
-----8--7-------10--8------|-----7--8--5-------------|
--0--------8-----------10--|--L-------------0--2--3--|


  E  E  E  Q     E  E   E     E  E  E  Q    E  E  E   
---------------------------|-------------------------|
---------------------------|-----------7----5--------|
-----8--7-------10--8------|-----7--8----------8--7--|
--0--------8-----------10--|--L----------------------|


  E  E  E  Q     E  E   E     E  E  E  Q    E  E  E   
---------------------------|-------------------------|
---------------------------|-------------------------|
-----8--7-------10--8------|-----7--8--5-------------|
--0--------8-----------10--|--L-------------0--2--3--|


  E  E  E  Q     E  E   E     E  E  E  Q    E  E  E   
---------------------------|-------------------------|
---------------------------|-----------7----5--------|
-----8--7-------10--8------|-----7--8----------8--7--|
--0--------8-----------10--|--L----------------------|


  E  E  E  Q     E  E   E     E  E  E  Q    E  E  E   
---------------------------|-------------------------|
---------------------------|-------------------------|
-----8--7-------10--8------|-----7--8--5-------------|
--0--------8-----------10--|--L-------------0--2--3--|


  E  E  E  Q     E  E   E     E  E  E  Q    E  E  E   
---------------------------|-------------------------|
---------------------------|-----------7----5--------|
-----8--7-------10--8------|-----7--8----------8--7--|
--0--------8-----------10--|--L----------------------|


  E  E  E  Q     E  E   E     E  E  E  Q    E  E  E   
---------------------------|-------------------------|
---------------------------|-------------------------|
-----8--7-------10--8------|-----7--8--5-------------|
--0--------8-----------10--|--L-------------0--2--3--|


  E  E  E  Q     E  E   E     E  E  E  E  Q    E  E   
---------------------------|-------------------------|
---------------------------|-----------7-------------|
-----8--7-------10--8------|-----7--8----------------|
--0--------8-----------10--|--L----------------------|


  E  E  E  E  E  E  E  E     E  E  E  E  E  E  E  E   
--------------------------|--------------------------|
--------------------------|--------------------------|
--------------------------|--------------------------|
--0--0--3--3--0--0--2--2--|--0--0--5--5--0--0--3--3--|


  E  E  E  E  E  E  E  E     E  E  E  E  E  E  E  E   
--------------------------|--------------------------|
--------------------------|--------------------------|
--------------------------|--------------------------|
--0--0--3--3--0--0--2--2--|--1--1--0--0--2--2--3--3--|


  E  E  E  E  E  E  E  E     E  E  E  E  E  E  E  E   
--------------------------|--------------------------|
--------------------------|--------------------------|
--------------------------|--------------------------|
--0--0--3--3--0--0--2--2--|--0--0--5--5--0--0--3--3--|


  E  E  E  E  E  E  E  E     E  E  Q    H           Q    E  E  Q    Q     
--------------------------|----------------------|-----------------------|
--------------------------|----------------------|-----------------------|
--------------------------|----------------------|-----------------------|
--0--0--3--3--0--0--2--2--|--1-------------------|--0----3--3--0----2----|


  Q    E  E  Q    Q       Q    E  E  Q    Q       Q    E  E  Q    Q     
-----------------------|-----------------------|-----------------------|
-----------------------|-----------------------|-----------------------|
-----------------------|-----------------------|-----------------------|
--0----5--5--0----3----|--0----3--3--0----2----|--1----0--0--2----3----|


  Q    E  E  Q    Q       Q    E  E  Q    Q       Q    E  E  Q    Q     
-----------------------|-----------------------|-----------------------|
-----------------------|-----------------------|-----------------------|
-----------------------|-----------------------|-----------------------|
--0----3--3--0----2----|--0----5--5--0----3----|--0----3--3--0----2----|


  E  Q    H        E     E  E  E  E  E  E  E  E     E  E  E  E  E  E  E  E   
----------------------|--------------------------|--------------------------|
----------------------|--------------------------|--------------------------|
----------------------|--------------------------|--1--1--1--1--------------|
--0-------------------|--0--0--0--0--3--3--2--2--|--------------5--5--3--3--|


  E  E  E  E  E  E  E  E     E  E  E  E  E  E  E  E   
--------------------------|--------------------------|
--------------------------|--------------------------|
--3--3--3--3--------------|--------------------------|
--------------2--2--3--3--|--0--0--7--7--0--0--2--2--|


  E  E  E  E  E  E  E  E     E  E  E  E  E  E  E  E   
--------------------------|--------------------------|
--------------------------|--------------------------|
--------------------------|--1--1--1--1--------------|
--0--0--0--0--3--3--2--2--|--------------5--5--3--3--|


  E  E  E  E  E  E  E  E     E  E  E  E  E  E  E  E   
--------------------------|--------------------------|
--------------------------|--------------------------|
--3--3--3--3--------------|--------------------------|
--------------2--2--3--3--|--0--0--7--7--0--0--2--2--|


  E  E  E  E  E  E  E  E     E  E  E  E  E  E  E  E   
--------------------------|--------------------------|
--------------------------|--------------------------|
--------------------------|--1--1--1--1--------------|
--0--0--0--0--3--3--2--2--|--------------5--5--3--3--|


  E  E  E  E  E  E  E  E     E  E  E  E  E  E  E  E   
--------------------------|--------------------------|
--------------------------|--------------------------|
--3--3--3--3--------------|--------------------------|
--------------2--2--3--3--|--0--0--7--7--0--0--2--2--|


  E  E  E  E  E  E  E  E     E  E  E  E  E  E  E  E   
--------------------------|--------------------------|
--------------------------|--------------------------|
--------------------------|--1--1--1--1--------------|
--0--0--0--0--3--3--2--2--|--------------5--5--3--3--|


  E  E  E  E  E  E  E  E     E  E  E  E  E  E  E  E   
--------------------------|--------------------------|
--------------------------|--------------------------|
--3--3--3--3--------------|--------------------------|
--------------2--2--3--3--|--0--0--7--7--0-----------|


  E  E  E  Q     E  E   E     E  E  E  Q    E  E  E   
---------------------------|-------------------------|
---------------------------|-------------------------|
-----8--7-------10--8------|-----7--8--5-------------|
--0--------8-----------10--|--L-------------0--2--3--|


  E  E  E  Q     E  E   E     E  E  E  Q    E  E  E   
---------------------------|-------------------------|
---------------------------|-----------7----5--------|
-----8--7-------10--8------|-----7--8----------8--7--|
--0--------8-----------10--|--L----------------------|


  E  E  E  Q     E  E   E     E  E  E  Q    E  E  E   
---------------------------|-------------------------|
---------------------------|-------------------------|
-----8--7-------10--8------|-----7--8--5-------------|
--0--------8-----------10--|--L-------------0--2--3--|


  E  E  E  Q     E  E   E     E  E  E  Q    E  E  E   
---------------------------|-------------------------|
---------------------------|-----------7----5--------|
-----8--7-------10--8------|-----7--8----------8--7--|
--0--------8-----------10--|--L----------------------|


  E  E  E  Q     E  E   E     E  E  E  Q    E  E  E   
---------------------------|-------------------------|
---------------------------|-------------------------|
-----8--7-------10--8------|-----7--8--5-------------|
--0--------8-----------10--|--L-------------0--2--3--|


  E  E  E  Q     E  E   E     E  E  E  Q    E  E  E   
---------------------------|-------------------------|
---------------------------|-----------7----5--------|
-----8--7-------10--8------|-----7--8----------8--7--|
--0--------8-----------10--|--L----------------------|


  E  E  E  Q     E  E   E     E  E  E  Q    E  E  E   
---------------------------|-------------------------|
---------------------------|-------------------------|
-----8--7-------10--8------|-----7--8--5-------------|
--0--------8-----------10--|--L-------------0--2--3--|


  E  E  E  Q     E  E   E     E  E  E  Q    E  E  E     Q.     H         E   
---------------------------|-------------------------|----------------------|
---------------------------|-----------7----5--------|----------------------|
-----8--7-------10--8------|-----7--8----------8--7--|----------------------|
--0--------8-----------10--|--L----------------------|--0------8--------10--|


  Q.     Q.     Q       Q.     H         E     Q.     Q.     Q     
---------------------|----------------------|---------------------|
---------------------|----------------------|---------------------|
---------------------|----------------------|---------------------|
--L------5------L----|--0------8--------10--|--L------3------L----|


  Q.     H         E     Q.     Q.     Q       Q.     H         E   
----------------------|---------------------|----------------------|
----------------------|---------------------|----------------------|
----------------------|---------------------|----------------------|
--0------8--------10--|--L------5------L----|--0------8--------10--|


  Q.     Q.     Q       E  E  E  Q.     E  E     E  Q.     Q    E  E   
---------------------|------------------------|-----------------------|
---------------------|------------------------|-----------------------|
---------------------|------------------------|-----------------------|
--L------3------L----|--0--0--0---------0--0--|--0--------------0--0--|


  E  Q.     E  E  E  E     H        E  E  E  E     Q    E  E  E  Q.      
------------------------|-----------------------|-----------------------|
------------------------|-----------------------|-----------------------|
------------------------|-----------------------|-----------------------|
--0---------0--0--0-----|-----------0--0--0-----|-------0--0--0---------|


  Q    E  E  E  Q.        E  E  E  E  H           E  E  Q    E  E  Q     
-----------------------|-----------------------|------------------------|
-----------------------|-----------------------|------------------------|
-----------------------|-----------------------|------------------------|
-------0--0--0---------|--0--0--0--------------|--0--0-------0--0-------|


  E  E  Q    E  E  Q       E  E  Q    E  E  Q       E  E  E  E  Q    Q     
------------------------|------------------------|------------------------|
------------------------|------------------------|------------------------|
------------------------|------------------------|------------------------|
--0--0-------0--0-------|--0--0-------0--0-------|--0--0--0----------0----|


  E  E  Q    E  E  Q       E  E  Q    E  E  Q       E  E  Q    E  E  Q     
------------------------|------------------------|------------------------|
------------------------|------------------------|------------------------|
------------------------|------------------------|------------------------|
--0--0-------0--0-------|--0--0-------0--0-------|--0--0-------0--0-------|


  E  E  E  E  Q    Q       E  E  Q    E  E  Q       E  E  Q    E  E  Q     
------------------------|------------------------|------------------------|
------------------------|------------------------|------------------------|
------------------------|------------------------|------------------------|
--0--0--0----------0----|--0--0-------0--0-------|--0--0-------0--0-------|


  E  E  Q    E  E  Q       E  E  E  E  Q    Q       E  E  Q    E  E  Q     
------------------------|------------------------|------------------------|
------------------------|------------------------|------------------------|
------------------------|------------------------|------------------------|
--0--0-------0--0-------|--0--0--0----------0----|--0--0-------0--0-------|


  E  E  Q    E  E  Q       E  E  Q    E  E  Q       E  E  E  E  Q    Q     
------------------------|------------------------|------------------------|
------------------------|------------------------|------------------------|
------------------------|------------------------|------------------------|
--0--0-------0--0-------|--0--0-------0--0-------|--0--0--0----------0----|


  E  E  Q    H           W                   W                 
----------------------|-------------------|-------------------|
----------------------|-------------------|-------------------|
----------------------|-------------------|-------------------|
--0-------------------|-------------------|-------------------|


  W                   W                   W                   W                 
-------------------|-------------------|-------------------|-------------------|
-------------------|-------------------|-------------------|-------------------|
-------------------|-------------------|-------------------|-------------------|
-------------------|--0----------------|--L----------------|--L----------------|


  W                   E  E  E  E  E  E  E  E     E  E  E  E  E  E  E  E   
-------------------|--------------------------|--------------------------|
-------------------|--------------------------|--------------------------|
-------------------|--------------------------|--------------------------|
--L----------------|--0--0--3--3--0--0--2--2--|--0--0--5--5--0--0--3--3--|


  E  E  E  E  E  E  E  E     E  E  E  E  E  E  E  E   
--------------------------|--------------------------|
--------------------------|--------------------------|
--------------------------|--------------------------|
--0--0--3--3--0--0--2--2--|--1--1--0--0--2--2--3--3--|


  E  E  E  E  E  E  E  E     E  E  E  E  E  E  E  E   
--------------------------|--------------------------|
--------------------------|--------------------------|
--------------------------|--------------------------|
--0--0--3--3--0--0--2--2--|--0--0--5--5--0--0--3--3--|


  E  E  E  E  E  E  E  E     E  E  E  E  E  E  E  E     Q    E  E  Q    Q     
--------------------------|--------------------------|-----------------------|
--------------------------|--------------------------|-----------------------|
--------------------------|--------------------------|-----------------------|
--0--0--3--3--0--0--2--2--|--1--1--0--0--2--2--3--3--|--0----0--0--3----2----|


  Q    E  E  Q    Q       Q    E  E  Q    Q       Q    E  E  Q    Q     
-----------------------|-----------------------|-----------------------|
-----------------------|-----------------------|-----------------------|
--1----1--1------------|--3----3--3------------|-----------------------|
-------------5----3----|-------------2----3----|--0----7--7--0----2----|


  Q    E  E  Q    Q       Q    E  E  Q    Q       Q    E  E  Q    Q     
-----------------------|-----------------------|-----------------------|
-----------------------|-----------------------|-----------------------|
-----------------------|--1----1--1------------|--3----3--3------------|
--0----0--0--3----2----|-------------5----3----|-------------2----3----|


  Q    E  E  H           E  E  E  E  E  E  E  E     E  E  E  E  E  E  E  E   
----------------------|--------------------------|--------------------------|
----------------------|--------------------------|--------------------------|
----------------------|--------------------------|--1--1--1--1--------------|
--0----7--7-----------|--0--0--0--0--3--3--2--2--|--------------5--5--3--3--|


  E  E  E  E  E  E  E  E     E  E  E  E  E  E  E  E     Q    E  E  Q    Q     
--------------------------|--------------------------|-----------------------|
--------------------------|--------------------------|-----------------------|
--3--3--3--3--------------|--------------------------|-----------------------|
--------------2--2--3--3--|--0--0--7--7--0--0--2--2--|--0----0--0--3----2----|


  Q    E  E  Q    Q       Q    E  E  Q    Q       Q    E  E  H         
-----------------------|-----------------------|----------------------|
-----------------------|-----------------------|----------------------|
--1----1--1------------|--3----3--3------------|----------------------|
-------------5----3----|-------------2----3----|--0----7--7-----------|


  E  E  E  Q     E  E   E     E  E  E  Q    E  E  E   
---------------------------|-------------------------|
---------------------------|-------------------------|
-----8--7-------10--8------|-----7--8--5-------------|
--0--------8-----------10--|--L-------------0--2--3--|


  E  E  E  Q     E  E   E     E  E  E  Q    E  E  E   
---------------------------|-------------------------|
---------------------------|-----------7----5--------|
-----8--7-------10--8------|-----7--8----------8--7--|
--0--------8-----------10--|--L----------------------|


  E  E  E  Q     E  E   E     E  E  E  Q    E  E  E   
---------------------------|-------------------------|
---------------------------|-------------------------|
-----8--7-------10--8------|-----7--8--5-------------|
--0--------8-----------10--|--L-------------0--2--3--|


  E  E  E  Q     E  E   E     E  E  E  Q    E  E  E   
---------------------------|-------------------------|
---------------------------|-----------7----5--------|
-----8--7-------10--8------|-----7--8----------8--7--|
--0--------8-----------10--|--L----------------------|


  E  E  E  Q     E  E   E     E  E  E  Q    E  E  E   
---------------------------|-------------------------|
---------------------------|-------------------------|
-----8--7-------10--8------|-----7--8--5-------------|
--0--------8-----------10--|--L-------------0--2--3--|


  E  E  E  Q     E  E   E     E  E  E  Q    E  E  E   
---------------------------|-------------------------|
---------------------------|-----------7----5--------|
-----8--7-------10--8------|-----7--8----------8--7--|
--0--------8-----------10--|--L----------------------|


  E  E  E  Q     E  E   E     E  E  E  Q    E  E  E   
---------------------------|-------------------------|
---------------------------|-------------------------|
-----8--7-------10--8------|-----7--8--5-------------|
--0--------8-----------10--|--L-------------0--2--3--|


  E  E  E  Q     E  E   E     E  E  E  Q    E  E  E     Q.     H         E   
---------------------------|-------------------------|----------------------|
---------------------------|-----------7----5--------|----------------------|
-----8--7-------10--8------|-----7--8----------8--7--|----------------------|
--0--------8-----------10--|--L----------------------|--0------8--------10--|


  Q.     Q.     Q       Q.     H         E     Q.     Q.     Q     
---------------------|----------------------|---------------------|
---------------------|----------------------|---------------------|
---------------------|----------------------|---------------------|
--L------5------L----|--0------8--------10--|--L------3------L----|


  Q.     H         E     Q.     Q.     Q       Q.     H         E   
----------------------|---------------------|----------------------|
----------------------|---------------------|----------------------|
----------------------|---------------------|----------------------|
--0------8--------10--|--L------5------L----|--0------8--------10--|


  Q.     Q.     Q       E  E  E  Q.     E  E     E  Q.     Q    E  E   
---------------------|------------------------|-----------------------|
---------------------|------------------------|-----------------------|
---------------------|------------------------|-----------------------|
--L------3------L----|--0--0--0---------0--0--|--0--------------0--0--|


  E  Q.     E  E  E  E     H        E  E  E  E     Q    E  E  E  Q.      
------------------------|-----------------------|-----------------------|
------------------------|-----------------------|-----------------------|
------------------------|-----------------------|-----------------------|
--0---------0--0--0-----|-----------0--0--0-----|-------0--0--0---------|


  Q    E  E  E  Q.        E  E  E  E  H           E  E  Q    Q    Q      
-----------------------|-----------------------|-----------------------||
-----------------------|-----------------------|-----------------------||
-----------------------|-----------------------|-----------------------||
-------0--0--0---------|--0--0--0--------------|--0--0-----------------||




Duration Legend
---------------
W - whole
H - half
Q - quarter
E - 8th
S - 16th
T - 32nd
X - 64th
. - note dotted
|-n-|  - n-tuplets


Tablature Legend
----------------
L - tied note
x - dead note
g - grace note
(n) - ghost note
> - accentuded note
NH - natural harmonic
AH - artificial harmonic
TH - tapped harmonic
SH - semi harmonic
PH - pitch harmonic
h - hammer on
p - pull off
b - bend
br - bendRelease
pb - preBend
pbr - preBendRelease
brb - bendReleaseBend
\n/ - tremolo bar dip
\n - tremolo bar dive
-/n - tremolo bar Release up
/n\ - tremolo bar inverted dip
/n - tremolo bar return
-\n - tremolo bar Release down
S - shift slide
s - legato slide
/ -  slide into from below or out of upwards
\ -  slide into from above or out of downwards
~ - vibrato
W - wide vibrato
tr - trill
TP - tremolo picking
T - tapping
S - slap
P - pop
< - fade in
^ - brush up
v - brush down





Comments


Popular Heaven Shall Burn tabs & chords
Black Tears Bass Tabs
Counterweight Bass Tabs
Only Truth Bass Tabs
Profane Believers Bass Tabs
Weapon They Fear Bass Tabs
Black Tears Tabs
Black Tears 1 Tabs
Bleeding To Death Tabs
Counterweight Tabs
Murderers Of The Murderers Tabs


Song lyrics



↑ Back to top | Tablatures and chords are parodies/interpretations of the original songs. You may use it for private study, scholarship, research or language learning purposes only
© 2014 AZChords.com Contact us | Privacy policy | DMCA | Add/correct tabs | Request tabs | Top 50 tabs