>
 >
Voice Of The Voiceless

Voice Of The Voiceless Guitar Tabs

Heaven Shall Burn - Voice Of The Voiceless chords, tabs, tablatures, lyrics

Guitar lessons | Add/correct | Request | Top 50 tabs Artists:  A B C D E F G H I J K L M N O P Q R S T U V W X Y Z 0-9

Voice Of The Voiceless Guitar Tabs – Heaven Shall Burn

CD, Sheet music, Poster

Do you like Voice Of The Voiceless? Share with your friends now
Bass TabsBass Tabs v2Tabs
                            Voice Of The Voiceless                              


                                                               Heaven Shall Burn
Guitar 1
Have fun!!!



     See       Them             
     H                H         
D||----------------------------|
A||----------------------------|
F||----------------------------|
C||----------------------------|
G||----------------------------|
C||----------------------------|


    Die !!!!!!!!!!!!                              
  S S                S S S S S S S S S S S S S S  
-------------------------------------------------|
-------------------------------------------------|
-------------------------------------------------|
-------------------------------------------------|
-------------------------8-8-8-8---------7-7-7-7-|
--0-0----------------0-0---------0-0-0-0---------|


  S S S S  S  S  S  S S S S S S S S S    S S S S S S S S S S S S S S S S  
--------------------------------------|----------------------------------|
--------------------------------------|----------------------------------|
--------------------------------------|----------------------------------|
--------------------------------------|----------------------------------|
----------10-10-10-10---------8-8-8-8-|----------8-8-8-8---------7-7-7-7-|
--0-0-0-0-------------0-0-0-0---------|--0-0-0-0---------0-0-0-0---------|


  S S S S S S S S S S S S S S S S    S S S S S S S S S S S S S S S S  
----------------------------------|----------------------------------|
----------------------------------|----------------------------------|
----------------------------------|----------------------------------|
----------------------------------|----------------------------------|
------------------7-7-7-7-8-8-8-8-|----------8-8-8-8---------7-7-7-7-|
--1-1-1-1-0-0-0-0-----------------|--0-0-0-0---------0-0-0-0---------|


  S S S S  S  S  S  S S S S S S S S S    S S S S S S S S S S S S S S S S  
--------------------------------------|----------------------------------|
--------------------------------------|----------------------------------|
--------------------------------------|----------------------------------|
--------------------------------------|----------------------------------|
----------10-10-10-10---------8-8-8-8-|----------8-8-8-8---------7-7-7-7-|
--0-0-0-0-------------0-0-0-0---------|--0-0-0-0---------0-0-0-0---------|


  S S S S S S S S S S S S S S S S    S S S S S S S S S S S S S S S S  
----------------------------------|----------------------------------|
----------------------------------|----------------------------------|
----------------------------------|----------------------------------|
----------------------------------|----------------------------------|
------------------7-7-7-7-8-8-8-8-|----------8-8-8-8---------7-7-7-7-|
--1-1-1-1-0-0-0-0-----------------|--0-0-0-0---------0-0-0-0---------|


  S S S S  S  S  S  S S S S S S S S S    S S S S S S S S S S S S S S S S  
--------------------------------------|----------------------------------|
--------------------------------------|----------------------------------|
--------------------------------------|----------------------------------|
--------------------------------------|----------------------------------|
----------10-10-10-10---------8-8-8-8-|----------8-8-8-8---------7-7-7-7-|
--0-0-0-0-------------0-0-0-0---------|--0-0-0-0---------0-0-0-0---------|


  S S S S S S S S S S S S S S S S    S S S S S S S S S S S S S S S S  
----------------------------------|----------------------------------|
----------------------------------|----------------------------------|
----------------------------------|----------------------------------|
----------------------------------|----------------------------------|
------------------7-7-7-7-8-8-8-8-|----------8-8-8-8---------7-7-7-7-|
--1-1-1-1-0-0-0-0-----------------|--0-0-0-0---------0-0-0-0---------|


  S S S S  S  S  S  S S S S S S S S S    S S S S S S S S S S S S S S S S  
--------------------------------------|----------------------------------|
--------------------------------------|----------------------------------|
--------------------------------------|----------------------------------|
--------------------------------------|----------------------------------|
----------10-10-10-10---------8-8-8-8-|----------8-8-8-8---------7-7-7-7-|
--0-0-0-0-------------0-0-0-0---------|--0-0-0-0---------0-0-0-0---------|


  S S S S S S S S S S S S S S S S  
----------------------------------|
----------------------------------|
----------------------------------|
----------------------------------|
------------------7-7-7-7-8-8-8-8-|
--1-1-1-1-0-0-0-0-----------------|


  PM PM PM   PM PM PM   PM PM PM   PM PM PM    
  S  S  S  S S  S  S  S S  S  S  S S  S  S  S  
----------------------------------------------|
----------------------------------------------|
----------------------------------------------|
----------------------------------------------|
-------------8--8--8----7--7--7---------------|
--0--0--0--------------------------8--8--8----|


   PM PM PM  PM PM PM    PM PM PM  PM PM PM    
   S  S  S S S  S  S  S  S  S  S S S  S  S  S  
----------------------------------------------|
----------------------------------------------|
----------------------------------------------|
----------------------------------------------|
--10-10-10---8--8--8--------------------------|
------------------------10-10-10---8--8--8----|


  PM PM PM   PM PM PM   PM PM PM   PM PM PM    
  S  S  S  S S  S  S  S S  S  S  S S  S  S  S  
----------------------------------------------|
----------------------------------------------|
----------------------------------------------|
----------------------------------------------|
-------------8--8--8----7--7--7---------------|
--0--0--0--------------------------8--8--8----|


  S S S S S S S S S S S S S S S S  
----------------------------------|
----------------------------------|
----------------------------------|
----------------------------------|
--8-8-8-8-8-8-8-8-7-7-7-7-5-5-5-5-|
----------------------------------|


  PM PM PM   PM PM PM   PM PM PM   PM PM PM    
  S  S  S  S S  S  S  S S  S  S  S S  S  S  S  
----------------------------------------------|
----------------------------------------------|
----------------------------------------------|
----------------------------------------------|
-------------8--8--8----7--7--7---------------|
--0--0--0--------------------------8--8--8----|


   PM PM PM  PM PM PM    PM PM PM  PM PM PM    
   S  S  S S S  S  S  S  S  S  S S S  S  S  S  
----------------------------------------------|
----------------------------------------------|
----------------------------------------------|
----------------------------------------------|
--10-10-10---8--8--8--------------------------|
------------------------10-10-10---8--8--8----|


  PM PM PM   PM PM PM   PM PM PM   PM PM PM    
  S  S  S  S S  S  S  S S  S  S  S S  S  S  S  
----------------------------------------------|
----------------------------------------------|
----------------------------------------------|
----------------------------------------------|
-------------8--8--8----7--7--7---------------|
--0--0--0--------------------------8--8--8----|


  S S S S S S S S  S  S  S  S S S S S    S S S S S S S S S S S S S S S S  
--------------------------------------|----------------------------------|
--------------------------------------|----------------------------------|
--------------------------------------|----------------------------------|
--------------------------------------|----------------------------------|
--7-7-7-7-8-8-8-8-10-10-10-10-8-8-8-8-|----------8-8-8-8---------7-7-7-7-|
--------------------------------------|--0-0-0-0---------0-0-0-0---------|


  S S S S  S  S  S  S S S S S S S S S    S S S S S S S S S S S S S S S S  
--------------------------------------|----------------------------------|
--------------------------------------|----------------------------------|
--------------------------------------|----------------------------------|
--------------------------------------|----------------------------------|
----------10-10-10-10---------8-8-8-8-|----------8-8-8-8---------7-7-7-7-|
--0-0-0-0-------------0-0-0-0---------|--0-0-0-0---------0-0-0-0---------|


  S S S S S S S S S S S S S S S S    S S S S S S S S S S S S S S S S  
----------------------------------|----------------------------------|
----------------------------------|----------------------------------|
----------------------------------|----------------------------------|
----------------------------------|----------------------------------|
------------------7-7-7-7-8-8-8-8-|----------8-8-8-8---------7-7-7-7-|
--1-1-1-1-0-0-0-0-----------------|--0-0-0-0---------0-0-0-0---------|


  S S S S  S  S  S  S S S S S S S S S    S S S S S S S S S S S S S S S S  
--------------------------------------|----------------------------------|
--------------------------------------|----------------------------------|
--------------------------------------|----------------------------------|
--------------------------------------|----------------------------------|
----------10-10-10-10---------8-8-8-8-|----------8-8-8-8---------7-7-7-7-|
--0-0-0-0-------------0-0-0-0---------|--0-0-0-0---------0-0-0-0---------|


  S S S S S S S S S S S S S S S S    S S S S S S S S S S S S S S S S  
----------------------------------|----------------------------------|
----------------------------------|----------------------------------|
----------------------------------|----------------------------------|
----------------------------------|----------------------------------|
------------------7-7-7-7-8-8-8-8-|------------------8-8-8-8-7-7-7-7-|
--1-1-1-1-0-0-0-0-----------------|--0-0-0-0-0-0-0-0-----------------|


  S S S S S S S S  S  S  S  S S S S S  
--------------------------------------|
--------------------------------------|
--------------------------------------|
--------------------------------------|
------------------10-10-10-10-8-8-8-8-|
--8-8-8-8-8-8-8-8---------------------|


   S  S  S  S  S  S  S  S S S S S S S S S    S S S S S S S S S S S S S S S S  
------------------------------------------|----------------------------------|
------------------------------------------|----------------------------------|
------------------------------------------|----------------------------------|
------------------------------------------|----------------------------------|
--------------------------7-7-7-7-8-8-8-8-|--5-5-5-5---------5-5-5-5-7-7-7-7-|
--10-10-10-10-10-10-10-10-----------------|----------7-7-7-7-----------------|


  S S S S S S S S S S S S S S S S    S S S S S S S S  S  S  S  S S S S S  
----------------------------------|--------------------------------------|
----------------------------------|--------------------------------------|
----------------------------------|--------------------------------------|
----------------------------------|--------------------------------------|
------------------8-8-8-8-7-7-7-7-|------------------10-10-10-10-8-8-8-8-|
--0-0-0-0-0-0-0-0-----------------|--8-8-8-8-8-8-8-8---------------------|


   S  S  S  S  S  S  S  S S S S S S S S S    S S S S S S S S S S S S S S S S  
------------------------------------------|----------------------------------|
------------------------------------------|----------------------------------|
------------------------------------------|----------------------------------|
------------------------------------------|----------------------------------|
--------------------------7-7-7-7-8-8-8-8-|--5-5-5-5---------5-5-5-5-7-7-7-7-|
--10-10-10-10-10-10-10-10-----------------|----------7-7-7-7-----------------|


  E  E  E  Q     E  E   E     E  E  E  Q    E  E  E   
---------------------------|-------------------------|
---------------------------|-------------------------|
---------------------------|-------------------------|
---------------------------|-------------------------|
-----8--7-------10--8------|-----7--8--5-------------|
--0--------8-----------10--|--L-------------0--2--3--|


  E  E  E  Q     E  E   E     E  E  E  Q    E  E  E   
---------------------------|-------------------------|
---------------------------|-------------------------|
---------------------------|-------------------------|
---------------------------|-----------7----5--------|
-----8--7-------10--8------|-----7--8----------8--7--|
--0--------8-----------10--|--L----------------------|


  E  E  E  Q     E  E   E     E  E  E  Q    E  E  E   
---------------------------|-------------------------|
---------------------------|-------------------------|
---------------------------|-------------------------|
---------------------------|-------------------------|
-----8--7-------10--8------|-----7--8--5-------------|
--0--------8-----------10--|--L-------------0--2--3--|


  E  E  E  Q     E  E   E     E  E  E  Q    E  E  E   
---------------------------|-------------------------|
---------------------------|-------------------------|
---------------------------|-------------------------|
---------------------------|-----------7----5--------|
-----8--7-------10--8------|-----7--8----------8--7--|
--0--------8-----------10--|--L----------------------|


  E  E  E  Q     E  E   E     E  E  E  Q    E  E  E   
---------------------------|-------------------------|
---------------------------|-------------------------|
---------------------------|-------------------------|
---------------------------|-------------------------|
-----8--7-------10--8------|-----7--8--5-------------|
--0--------8-----------10--|--L-------------0--2--3--|


  E  E  E  Q     E  E   E     E  E  E  Q    E  E  E   
---------------------------|-------------------------|
---------------------------|-------------------------|
---------------------------|-------------------------|
---------------------------|-----------7----5--------|
-----8--7-------10--8------|-----7--8----------8--7--|
--0--------8-----------10--|--L----------------------|


  E  E  E  Q     E  E   E     E  E  E  Q    E  E  E   
---------------------------|-------------------------|
---------------------------|-------------------------|
---------------------------|-------------------------|
---------------------------|-------------------------|
-----8--7-------10--8------|-----7--8--5-------------|
--0--------8-----------10--|--L-------------0--2--3--|


  E  E  E  Q     E  E   E     E  E  E  Q    E  E  E   
---------------------------|-------------------------|
---------------------------|-------------------------|
---------------------------|-------------------------|
---------------------------|-----------7----5--------|
-----8--7-------10--8------|-----7--8----------8--7--|
--0--------8-----------10--|--L----------------------|


  S S S S S S S S S S S S S S S S    S S S S  S  S  S  S S S S S S S S S  
----------------------------------|--------------------------------------|
----------------------------------|--------------------------------------|
----------------------------------|--------------------------------------|
----------------------------------|--------------------------------------|
----------8-8-8-8---------7-7-7-7-|----------10-10-10-10---------8-8-8-8-|
--0-0-0-0---------0-0-0-0---------|--0-0-0-0-------------0-0-0-0---------|


  S S S S S S S S S S S S S S S S    S S S S S S S S S S S S S S S S  
----------------------------------|----------------------------------|
----------------------------------|----------------------------------|
----------------------------------|----------------------------------|
----------------------------------|----------------------------------|
----------8-8-8-8---------7-7-7-7-|------------------7-7-7-7-8-8-8-8-|
--0-0-0-0---------0-0-0-0---------|--1-1-1-1-0-0-0-0-----------------|


  S S S S S S S S S S S S S S S S    S S S S  S  S  S  S S S S S S S S S  
----------------------------------|--------------------------------------|
----------------------------------|--------------------------------------|
----------------------------------|--------------------------------------|
----------------------------------|--------------------------------------|
----------8-8-8-8---------7-7-7-7-|----------10-10-10-10---------8-8-8-8-|
--0-0-0-0---------0-0-0-0---------|--0-0-0-0-------------0-0-0-0---------|


  S S S S S S S S S S S S S S S S    S S S S S S S S S S S S S S S S  
----------------------------------|----------------------------------|
----------------------------------|----------------------------------|
----------------------------------|----------------------------------|
----------------------------------|----------------------------------|
----------8-8-8-8---------7-7-7-7-|------------------7-7-7-7-8-8-8-8-|
--0-0-0-0---------0-0-0-0---------|--1-1-1-1-0-0-0-0-----------------|


  S S S S S S S S S S S S S S S S    S S S S  S  S  S  S S S S S S S S S  
----------------------------------|--------------------------------------|
----------------------------------|--------------------------------------|
----------------------------------|--------------------------------------|
----------------------------------|--------------------------------------|
----------8-8-8-8---------7-7-7-7-|----------10-10-10-10---------8-8-8-8-|
--0-0-0-0---------0-0-0-0---------|--0-0-0-0-------------0-0-0-0---------|


  S S S S S S S S S S S S S S S S    S S S S S S S S S S S S S S S S  
----------------------------------|----------------------------------|
----------------------------------|----------------------------------|
----------------------------------|----------------------------------|
----------------------------------|----------------------------------|
----------8-8-8-8---------7-7-7-7-|------------------7-7-7-7-8-8-8-8-|
--0-0-0-0---------0-0-0-0---------|--1-1-1-1-0-0-0-0-----------------|


  S S S S S S S S S S S S S S S S    S S S S  S  S  S  S S S S S S S S S  
----------------------------------|--------------------------------------|
----------------------------------|--------------------------------------|
----------------------------------|--------------------------------------|
----------------------------------|--------------------------------------|
----------8-8-8-8---------7-7-7-7-|----------10-10-10-10---------8-8-8-8-|
--0-0-0-0---------0-0-0-0---------|--0-0-0-0-------------0-0-0-0---------|


  S S S S S S S S S S S S S S S S    S S S S S S S S S S S S S S S S  
----------------------------------|----------------------------------|
----------------------------------|----------------------------------|
----------------------------------|----------------------------------|
----------------------------------|----------------------------------|
----------8-8-8-8---------7-7-7-7-|------------------7-7-7-7-8-8-8-8-|
--0-0-0-0---------0-0-0-0---------|--1-1-1-1-0-0-0-0-----------------|


  S S S S S S S S S S S S S S S S    S S S S S S S S  S  S  S  S S S S S  
----------------------------------|--------------------------------------|
----------------------------------|--------------------------------------|
----------------------------------|--------------------------------------|
----------------------------------|--------------------------------------|
------------------8-8-8-8-7-7-7-7-|------------------10-10-10-10-8-8-8-8-|
--0-0-0-0-0-0-0-0-----------------|--8-8-8-8-8-8-8-8---------------------|


   S  S  S  S  S  S  S  S S S S S S S S S    S S S S S S S S S S S S S S S S  
------------------------------------------|----------------------------------|
------------------------------------------|----------------------------------|
------------------------------------------|----------------------------------|
------------------------------------------|----------------------------------|
--------------------------7-7-7-7-8-8-8-8-|--5-5-5-5---------5-5-5-5-7-7-7-7-|
--10-10-10-10-10-10-10-10-----------------|----------7-7-7-7-----------------|


  S S S S S S S S S S S S S S S S    S S S S S S S S  S  S  S  S S S S S  
----------------------------------|--------------------------------------|
----------------------------------|--------------------------------------|
----------------------------------|--------------------------------------|
----------------------------------|--------------------------------------|
------------------8-8-8-8-7-7-7-7-|------------------10-10-10-10-8-8-8-8-|
--0-0-0-0-0-0-0-0-----------------|--8-8-8-8-8-8-8-8---------------------|


   S  S  S  S  S  S  S  S S S S S S S S S    S S S S S S S S S S S S S S S S  
------------------------------------------|----------------------------------|
------------------------------------------|----------------------------------|
------------------------------------------|----------------------------------|
------------------------------------------|----------------------------------|
--------------------------7-7-7-7-8-8-8-8-|--5-5-5-5---------5-5-5-5-7-7-7-7-|
--10-10-10-10-10-10-10-10-----------------|----------7-7-7-7-----------------|


  S S S S S S S S S S S S S S S S    S S S S S S S S  S  S  S  S S S S S  
----------------------------------|--------------------------------------|
----------------------------------|--------------------------------------|
----------------------------------|--------------------------------------|
----------------------------------|--------------------------------------|
------------------8-8-8-8-7-7-7-7-|------------------10-10-10-10-8-8-8-8-|
--0-0-0-0-0-0-0-0-----------------|--8-8-8-8-8-8-8-8---------------------|


   S  S  S  S  S  S  S  S S S S S S S S S    S S S S S S S S S S S S S S S S  
------------------------------------------|----------------------------------|
------------------------------------------|----------------------------------|
------------------------------------------|----------------------------------|
------------------------------------------|----------------------------------|
--------------------------7-7-7-7-8-8-8-8-|--5-5-5-5---------5-5-5-5-7-7-7-7-|
--10-10-10-10-10-10-10-10-----------------|----------7-7-7-7-----------------|


  S S S S S S S S S S S S S S S S    S S S S S S S S  S  S  S  S S S S S  
----------------------------------|--------------------------------------|
----------------------------------|--------------------------------------|
----------------------------------|--------------------------------------|
----------------------------------|--------------------------------------|
------------------8-8-8-8-7-7-7-7-|------------------10-10-10-10-8-8-8-8-|
--0-0-0-0-0-0-0-0-----------------|--8-8-8-8-8-8-8-8---------------------|


   S  S  S  S  S  S  S  S S S S S S S S S    S S S S S S S S S S S S S S S S  
------------------------------------------|----------------------------------|
------------------------------------------|----------------------------------|
------------------------------------------|----------------------------------|
------------------------------------------|----------------------------------|
--------------------------7-7-7-7-8-8-8-8-|--5-5-5-5---------5-5-5-5-7-7-7-7-|
--10-10-10-10-10-10-10-10-----------------|----------7-7-7-7-----------------|


  E  E  E  Q     E  E   E     E  E  E  Q    E  E  E   
---------------------------|-------------------------|
---------------------------|-------------------------|
---------------------------|-------------------------|
---------------------------|-------------------------|
-----8--7-------10--8------|-----7--8--5-------------|
--0--------8-----------10--|--L-------------0--2--3--|


  E  E  E  Q     E  E   E     E  E  E  Q    E  E  E   
---------------------------|-------------------------|
---------------------------|-------------------------|
---------------------------|-------------------------|
---------------------------|-----------7----5--------|
-----8--7-------10--8------|-----7--8----------8--7--|
--0--------8-----------10--|--L----------------------|


  E  E  E  Q     E  E   E     E  E  E  Q    E  E  E   
---------------------------|-------------------------|
---------------------------|-------------------------|
---------------------------|-------------------------|
---------------------------|-------------------------|
-----8--7-------10--8------|-----7--8--5-------------|
--0--------8-----------10--|--L-------------0--2--3--|


  E  E  E  Q     E  E   E     E  E  E  Q    E  E  E   
---------------------------|-------------------------|
---------------------------|-------------------------|
---------------------------|-------------------------|
---------------------------|-----------7----5--------|
-----8--7-------10--8------|-----7--8----------8--7--|
--0--------8-----------10--|--L----------------------|


  E  E  E  Q     E  E   E     E  E  E  Q    E  E  E   
---------------------------|-------------------------|
---------------------------|-------------------------|
---------------------------|-------------------------|
---------------------------|-------------------------|
-----8--7-------10--8------|-----7--8--5-------------|
--0--------8-----------10--|--L-------------0--2--3--|


  E  E  E  Q     E  E   E     E  E  E  Q    E  E  E   
---------------------------|-------------------------|
---------------------------|-------------------------|
---------------------------|-------------------------|
---------------------------|-----------7----5--------|
-----8--7-------10--8------|-----7--8----------8--7--|
--0--------8-----------10--|--L----------------------|


  E  E  E  Q     E  E   E     E  E  E  Q    E  E  E   
---------------------------|-------------------------|
---------------------------|-------------------------|
---------------------------|-------------------------|
---------------------------|-------------------------|
-----8--7-------10--8------|-----7--8--5-------------|
--0--------8-----------10--|--L-------------0--2--3--|


  E  E  E  Q     E  E   E     E  E  E  Q    E  E  E   
---------------------------|-------------------------|
---------------------------|-------------------------|
---------------------------|-------------------------|
---------------------------|-----------7----5--------|
-----8--7-------10--8------|-----7--8----------8--7--|
--0--------8-----------10--|--L----------------------|


  E  E  E  Q     E  E   E     E  E  E  Q    E  E  E   
---------------------------|-------------------------|
---------------------------|-------------------------|
---------------------------|-------------------------|
---------------------------|-------------------------|
-----8--7-------10--8------|-----7--8--5-------------|
--0--------8-----------10--|--L-------------0--2--3--|


  E  E  E  Q     E  E   E     E  E  E  Q    E  E  E   
---------------------------|-------------------------|
---------------------------|-------------------------|
---------------------------|-------------------------|
---------------------------|-----------7----5--------|
-----8--7-------10--8------|-----7--8----------8--7--|
--0--------8-----------10--|--L----------------------|


  E  E  E  Q     E  E   E     E  E  E  Q    E  E  E   
---------------------------|-------------------------|
---------------------------|-------------------------|
---------------------------|-------------------------|
---------------------------|-------------------------|
-----8--7-------10--8------|-----7--8--5-------------|
--0--------8-----------10--|--L-------------0--2--3--|


  E  E  E  Q     E  E   E     E  E  E  Q    E  E  E   
---------------------------|-------------------------|
---------------------------|-------------------------|
---------------------------|-------------------------|
---------------------------|-----------7----5--------|
-----8--7-------10--8------|-----7--8----------8--7--|
--0--------8-----------10--|--L----------------------|


  PM PM PM          PM PM    PM                  PM PM  
  E  E  E  E  E  E  E  E     E   E   E  E  E  E  E  E   
--------------------------|----------------------------|
--------------------------|----------------------------|
--------------------------|----------------------------|
--------------------------|----------------------------|
-----------8--8--5--------|-----10--10--7--8--5--------|
--0--0--0-----------0--0--|--0-------------------0--0--|


  PM          PM PM PM                     PM PM PM     
  E  E  E  E  E  E  E   E      E  E  E  E  E  E  E  E   
---------------------------|---------------------------|
---------------------------|---------------------------|
---------------------------|---------------------------|
---------------------------|---------------------------|
-----8--8--5-----------10--|--10--7--8--5-----------8--|
--0-----------0--0--0------|---------------0--0--0-----|


        PM PM PM                     PM PM PM           
  E  E  E  E  E   E   E  E     E  E  E  E  E  E  E  E   
----------------------------|--------------------------|
----------------------------|--------------------------|
----------------------------|--------------------------|
----------------------------|--------------------------|
--8--5-----------10--10--7--|--8--5-----------8--8--5--|
--------0--0--0-------------|--------0--0--0-----------|


  PM PM PM                     PM PM       PM PM         
  E  E  E   E   E  E  E  E     E  E  E  E  E  E   E  E   
----------------------------|---------------------------|
----------------------------|---------------------------|
----------------------------|---------------------------|
----------------------------|---------------------------|
-----------10--10--7--8--5--|--------8--5--------10--7--|
--0--0--0-------------------|--0--0--------0--0---------|


  PM PM       PM PM          PM PM       PM PM         
  E  E  E  E  E  E  E  E     E  E  E  E  E  E   E  E   
--------------------------|---------------------------|
--------------------------|---------------------------|
--------------------------|---------------------------|
--------------------------|---------------------------|
--------8--5--------7--3--|--------8--5--------10--7--|
--0--0--------0--0--------|--0--0--------0--0---------|


  PM PM PM                   PM PM       PM PM         
  E  E  E  E  E  E  E  E     E  E  E  E  E  E   E  E   
--------------------------|---------------------------|
--------------------------|---------------------------|
--------------------------|---------------------------|
--------------------------|---------------------------|
-----------8--8--5--7--3--|--------8--5--------10--7--|
--0--0--0-----------------|--0--0--------0--0---------|


  PM PM       PM PM          PM PM       PM PM         
  E  E  E  E  E  E  E  E     E  E  E  E  E  E   E  E   
--------------------------|---------------------------|
--------------------------|---------------------------|
--------------------------|---------------------------|
--------------------------|---------------------------|
--------8--5--------7--3--|--------8--5--------10--7--|
--0--0--------0--0--------|--0--0--------0--0---------|


  PM PM PM                   PM PM       PM PM         
  E  E  E  E  E  E  E  E     E  E  E  E  E  E   E  E   
--------------------------|---------------------------|
--------------------------|---------------------------|
--------------------------|---------------------------|
--------------------------|---------------------------|
-----------8--8--5--7--3--|--------8--5--------10--7--|
--0--0--0-----------------|--0--0--------0--0---------|


  PM PM       PM PM          PM PM       PM PM         
  E  E  E  E  E  E  E  E     E  E  E  E  E  E   E  E   
--------------------------|---------------------------|
--------------------------|---------------------------|
--------------------------|---------------------------|
--------------------------|---------------------------|
--------8--5--------7--3--|--------8--5--------10--7--|
--0--0--------0--0--------|--0--0--------0--0---------|


  PM PM PM                   PM PM       PM PM         
  E  E  E  E  E  E  E  E     E  E  E  E  E  E   E  E   
--------------------------|---------------------------|
--------------------------|---------------------------|
--------------------------|---------------------------|
--------------------------|---------------------------|
-----------8--8--5--7--3--|--------8--5--------10--7--|
--0--0--0-----------------|--0--0--------0--0---------|


  PM PM       PM PM          PM PM       PM PM         
  E  E  E  E  E  E  E  E     E  E  E  E  E  E   E  E   
--------------------------|---------------------------|
--------------------------|---------------------------|
--------------------------|---------------------------|
--------------------------|---------------------------|
--------8--5--------7--3--|--------8--5--------10--7--|
--0--0--------0--0--------|--0--0--------0--0---------|


  PM PM PM                                                    
  E  E  E  E  E  E  E  E     S S S S S S S S S S S S S S S S  
--------------------------|----------------------------------|
--------------------------|----------------------------------|
--------------------------|----------------------------------|
--------------------------|----------------------------------|
-----------8--8--5--7--3--|----------8-8-8-8---------7-7-7-7-|
--0--0--0-----------------|--0-0-0-0---------0-0-0-0---------|


  S S S S  S  S  S  S S S S S S S S S    S S S S S S S S S S S S S S S S  
--------------------------------------|----------------------------------|
--------------------------------------|----------------------------------|
--------------------------------------|----------------------------------|
--------------------------------------|----------------------------------|
----------10-10-10-10---------8-8-8-8-|----------8-8-8-8---------7-7-7-7-|
--0-0-0-0-------------0-0-0-0---------|--0-0-0-0---------0-0-0-0---------|


  S S S S S S S S S S S S S S S S    S S S S S S S S S S S S S S S S  
----------------------------------|----------------------------------|
----------------------------------|----------------------------------|
----------------------------------|----------------------------------|
----------------------------------|----------------------------------|
------------------7-7-7-7-8-8-8-8-|----------8-8-8-8---------7-7-7-7-|
--1-1-1-1-0-0-0-0-----------------|--0-0-0-0---------0-0-0-0---------|


  S S S S  S  S  S  S S S S S S S S S    S S S S S S S S S S S S S S S S  
--------------------------------------|----------------------------------|
--------------------------------------|----------------------------------|
--------------------------------------|----------------------------------|
--------------------------------------|----------------------------------|
----------10-10-10-10---------8-8-8-8-|----------8-8-8-8---------7-7-7-7-|
--0-0-0-0-------------0-0-0-0---------|--0-0-0-0---------0-0-0-0---------|


  S S S S S S S S S S S S S S S S    S S S S S S S S S S S S S S S S  
----------------------------------|----------------------------------|
----------------------------------|----------------------------------|
----------------------------------|----------------------------------|
----------------------------------|----------------------------------|
------------------7-7-7-7-8-8-8-8-|----------8-8-8-8---------7-7-7-7-|
--1-1-1-1-0-0-0-0-----------------|--0-0-0-0---------0-0-0-0---------|


  S S S S  S  S  S  S S S S S S S S S    S S S S S S S S S S S S S S S S  
--------------------------------------|----------------------------------|
--------------------------------------|----------------------------------|
--------------------------------------|----------------------------------|
--------------------------------------|----------------------------------|
----------10-10-10-10---------8-8-8-8-|----------8-8-8-8---------7-7-7-7-|
--0-0-0-0-------------0-0-0-0---------|--0-0-0-0---------0-0-0-0---------|


  S S S S S S S S S S S S S S S S    S S S S S S S S S S S S S S S S  
----------------------------------|----------------------------------|
----------------------------------|----------------------------------|
----------------------------------|----------------------------------|
----------------------------------|----------------------------------|
------------------7-7-7-7-8-8-8-8-|----------8-8-8-8---------7-7-7-7-|
--1-1-1-1-0-0-0-0-----------------|--0-0-0-0---------0-0-0-0---------|


  S S S S  S  S  S  S S S S S S S S S    S S S S S S S S S S S S S S S S  
--------------------------------------|----------------------------------|
--------------------------------------|----------------------------------|
--------------------------------------|----------------------------------|
--------------------------------------|----------------------------------|
----------10-10-10-10---------8-8-8-8-|----------8-8-8-8---------7-7-7-7-|
--0-0-0-0-------------0-0-0-0---------|--0-0-0-0---------0-0-0-0---------|


  S S S S S S S S S S S S S S S S    S S S S S S S S S S S S S S S S  
----------------------------------|----------------------------------|
----------------------------------|----------------------------------|
----------------------------------|----------------------------------|
----------------------------------|----------------------------------|
------------------7-7-7-7-8-8-8-8-|------------------8-8-8-8-7-7-7-7-|
--1-1-1-1-0-0-0-0-----------------|--0-0-0-0-0-0-0-0-----------------|


  S S S S S S S S  S  S  S  S S S S S  
--------------------------------------|
--------------------------------------|
--------------------------------------|
--------------------------------------|
------------------10-10-10-10-8-8-8-8-|
--8-8-8-8-8-8-8-8---------------------|


   S  S  S  S  S  S  S  S S S S S S S S S    S S S S S S S S S S S S S S S S  
------------------------------------------|----------------------------------|
------------------------------------------|----------------------------------|
------------------------------------------|----------------------------------|
------------------------------------------|----------------------------------|
--------------------------7-7-7-7-8-8-8-8-|--5-5-5-5---------5-5-5-5-7-7-7-7-|
--10-10-10-10-10-10-10-10-----------------|----------7-7-7-7-----------------|


  S S S S S S S S S S S S S S S S    S S S S S S S S  S  S  S  S S S S S  
----------------------------------|--------------------------------------|
----------------------------------|--------------------------------------|
----------------------------------|--------------------------------------|
----------------------------------|--------------------------------------|
------------------8-8-8-8-7-7-7-7-|------------------10-10-10-10-8-8-8-8-|
--0-0-0-0-0-0-0-0-----------------|--8-8-8-8-8-8-8-8---------------------|


   S  S  S  S  S  S  S  S S S S S S S S S    S S S S S S S S S S S S S S S S  
------------------------------------------|----------------------------------|
------------------------------------------|----------------------------------|
------------------------------------------|----------------------------------|
------------------------------------------|----------------------------------|
--------------------------7-7-7-7-8-8-8-8-|--5-5-5-5---------5-5-5-5-7-7-7-7-|
--10-10-10-10-10-10-10-10-----------------|----------7-7-7-7-----------------|


  S S S S S S S S S S S S S S S S    S S S S S S S S  S  S  S  S S S S S  
----------------------------------|--------------------------------------|
----------------------------------|--------------------------------------|
----------------------------------|--------------------------------------|
----------------------------------|--------------------------------------|
------------------8-8-8-8-7-7-7-7-|------------------10-10-10-10-8-8-8-8-|
--0-0-0-0-0-0-0-0-----------------|--8-8-8-8-8-8-8-8---------------------|


   S  S  S  S  S  S  S  S S S S S S S S S    S S S S S S S S S S S S S S S S  
------------------------------------------|----------------------------------|
------------------------------------------|----------------------------------|
------------------------------------------|----------------------------------|
------------------------------------------|----------------------------------|
--------------------------7-7-7-7-8-8-8-8-|--5-5-5-5---------5-5-5-5-7-7-7-7-|
--10-10-10-10-10-10-10-10-----------------|----------7-7-7-7-----------------|


  S S S S S S S S S S S S S S S S    S S S S S S S S  S  S  S  S S S S S  
----------------------------------|--------------------------------------|
----------------------------------|--------------------------------------|
----------------------------------|--------------------------------------|
----------------------------------|--------------------------------------|
------------------8-8-8-8-7-7-7-7-|------------------10-10-10-10-8-8-8-8-|
--0-0-0-0-0-0-0-0-----------------|--8-8-8-8-8-8-8-8---------------------|


   S  S  S  S  S  S  S  S S S S S S S S S    S S S S S S S S S S S S S S S S  
------------------------------------------|----------------------------------|
------------------------------------------|----------------------------------|
------------------------------------------|----------------------------------|
------------------------------------------|----------------------------------|
--------------------------7-7-7-7-8-8-8-8-|--5-5-5-5---------5-5-5-5-7-7-7-7-|
--10-10-10-10-10-10-10-10-----------------|----------7-7-7-7-----------------|


  E  E  E  Q     E  E   E     E  E  E  Q    E  E  E   
---------------------------|-------------------------|
---------------------------|-------------------------|
---------------------------|-------------------------|
---------------------------|-------------------------|
-----8--7-------10--8------|-----7--8--5-------------|
--0--------8-----------10--|--L-------------0--2--3--|


  E  E  E  Q     E  E   E     E  E  E  Q    E  E  E   
---------------------------|-------------------------|
---------------------------|-------------------------|
---------------------------|-------------------------|
---------------------------|-----------7----5--------|
-----8--7-------10--8------|-----7--8----------8--7--|
--0--------8-----------10--|--L----------------------|


  E  E  E  Q     E  E   E     E  E  E  Q    E  E  E   
---------------------------|-------------------------|
---------------------------|-------------------------|
---------------------------|-------------------------|
---------------------------|-------------------------|
-----8--7-------10--8------|-----7--8--5-------------|
--0--------8-----------10--|--L-------------0--2--3--|


  E  E  E  Q     E  E   E     E  E  E  Q    E  E  E   
---------------------------|-------------------------|
---------------------------|-------------------------|
---------------------------|-------------------------|
---------------------------|-----------7----5--------|
-----8--7-------10--8------|-----7--8----------8--7--|
--0--------8-----------10--|--L----------------------|


  E  E  E  Q     E  E   E     E  E  E  Q    E  E  E   
---------------------------|-------------------------|
---------------------------|-------------------------|
---------------------------|-------------------------|
---------------------------|-------------------------|
-----8--7-------10--8------|-----7--8--5-------------|
--0--------8-----------10--|--L-------------0--2--3--|


  E  E  E  Q     E  E   E     E  E  E  Q    E  E  E   
---------------------------|-------------------------|
---------------------------|-------------------------|
---------------------------|-------------------------|
---------------------------|-----------7----5--------|
-----8--7-------10--8------|-----7--8----------8--7--|
--0--------8-----------10--|--L----------------------|


  E  E  E  Q     E  E   E     E  E  E  Q    E  E  E   
---------------------------|-------------------------|
---------------------------|-------------------------|
---------------------------|-------------------------|
---------------------------|-------------------------|
-----8--7-------10--8------|-----7--8--5-------------|
--0--------8-----------10--|--L-------------0--2--3--|


  E  E  E  Q     E  E   E     E  E  E  Q    E  E  E   
---------------------------|-------------------------|
---------------------------|-------------------------|
---------------------------|-------------------------|
---------------------------|-----------7----5--------|
-----8--7-------10--8------|-----7--8----------8--7--|
--0--------8-----------10--|--L----------------------|


  E  E  E  Q     E  E   E     E  E  E  Q    E  E  E   
---------------------------|-------------------------|
---------------------------|-------------------------|
---------------------------|-------------------------|
---------------------------|-------------------------|
-----8--7-------10--8------|-----7--8--5-------------|
--0--------8-----------10--|--L-------------0--2--3--|


  E  E  E  Q     E  E   E     E  E  E  Q    E  E  E   
---------------------------|-------------------------|
---------------------------|-------------------------|
---------------------------|-------------------------|
---------------------------|-----------7----5--------|
-----8--7-------10--8------|-----7--8----------8--7--|
--0--------8-----------10--|--L----------------------|


  E  E  E  Q     E  E   E     E  E  E  Q    E  E  E   
---------------------------|-------------------------|
---------------------------|-------------------------|
---------------------------|-------------------------|
---------------------------|-------------------------|
-----8--7-------10--8------|-----7--8--5-------------|
--0--------8-----------10--|--L-------------0--2--3--|


  E  E  E  Q     E  E   E     E  E  E  Q    E  E  E   
---------------------------|-------------------------|
---------------------------|-------------------------|
---------------------------|-------------------------|
---------------------------|-----------7----5--------|
-----8--7-------10--8------|-----7--8----------8--7--|
--0--------8-----------10--|--L----------------------|


  PM PM PM          PM PM    PM                  PM PM  
  E  E  E  E  E  E  E  E     E   E   E  E  E  E  E  E   
--------------------------|----------------------------|
--------------------------|----------------------------|
--------------------------|----------------------------|
--------------------------|----------------------------|
-----------8--8--5--------|-----10--10--7--8--5--------|
--0--0--0-----------0--0--|--0-------------------0--0--|


  PM          PM PM PM                     PM PM PM     
  E  E  E  E  E  E  E   E      E  E  E  E  E  E  E  E   
---------------------------|---------------------------|
---------------------------|---------------------------|
---------------------------|---------------------------|
---------------------------|---------------------------|
-----8--8--5-----------10--|--10--7--8--5-----------8--|
--0-----------0--0--0------|---------------0--0--0-----|


        PM PM PM                     PM PM PM           
  E  E  E  E  E   E   E  E     E  E  E  E  E  E  E  E   
----------------------------|--------------------------|
----------------------------|--------------------------|
----------------------------|--------------------------|
----------------------------|--------------------------|
--8--5-----------10--10--7--|--8--5-----------8--8--5--|
--------0--0--0-------------|--------0--0--0-----------|


  PM PM PM                     PM PM                     
  E  E  E   E   E  E  E  E     E  E  E  E  E  E  E  E    
----------------------------|--------------------------||
----------------------------|--------------------------||
----------------------------|--------------------------||
----------------------------|--------------------------||
-----------10--10--7--8--5--|--------------------------||
--0--0--0-------------------|--0--0--------------------||




Duration Legend
---------------
W - whole
H - half
Q - quarter
E - 8th
S - 16th
T - 32nd
X - 64th
. - note dotted
|-n-|  - n-tuplets


Tablature Legend
----------------
L - tied note
x - dead note
g - grace note
(n) - ghost note
> - accentuded note
NH - natural harmonic
AH - artificial harmonic
TH - tapped harmonic
SH - semi harmonic
PH - pitch harmonic
h - hammer on
p - pull off
b - bend
br - bendRelease
pb - preBend
pbr - preBendRelease
brb - bendReleaseBend
\n/ - tremolo bar dip
\n - tremolo bar dive
-/n - tremolo bar Release up
/n\ - tremolo bar inverted dip
/n - tremolo bar return
-\n - tremolo bar Release down
S - shift slide
s - legato slide
/ -  slide into from below or out of upwards
\ -  slide into from above or out of downwards
~ - vibrato
W - wide vibrato
tr - trill
TP - tremolo picking
T - tapping
S - slap
P - pop
< - fade in
^ - brush up
v - brush down





Comments


Popular Heaven Shall Burn tabs & chords
Black Tears Bass Tabs
Endzeit Bass Tabs
Profane Believers Bass Tabs
Profane Believers 2 Bass Tabs
Stay The Course 2 Bass Tabs
The Weapon They Fear Bass Tabs
Bleeding To Death Tabs
Equinox Tabs
Forlorn Skies Tabs
Of Forsaken Poets Tabs


Song lyrics



↑ Back to top | Tablatures and chords are parodies/interpretations of the original songs. You may use it for private study, scholarship, research or language learning purposes only
© 2014 AZChords.com Contact us | Privacy policy | DMCA | Add/correct tabs | Request tabs | Top 50 tabs