>
 >
Black Tears

Black Tears Bass Tabs

Heaven Shall Burn - Black Tears chords, tabs, tablatures, lyrics

Guitar lessons | Add/correct | Request | Top 50 tabs Artists:  A B C D E F G H I J K L M N O P Q R S T U V W X Y Z 0-9

Black Tears Bass Tabs – Heaven Shall Burn

CD, Sheet music, Poster

Do you like Black Tears? Share with your friends now
Bass TabsTabsTabs v2
i had written this tab for the bass player of our band he said he couldn't 
find any tabs for this song.
so i had written a bass tab based on the guitar parts of the song hope you enjoy 
it ;) and listen carefully to the song,
when learnig it with these tabs. i'm ready for any corrections and updates just contact me ;)
(tab by matthew mitchell)

INTRO

G|------------------------------------------------------|
D|------------------------------------------------------|   x3
A|--5555555--111--33333---------------------------------|
D|------------------------------------------------------|

G|------------------------------------------------------|
D|------------------------------------------------------|   
A|--11111111--33333333----------------------------------|
d|------------------------------------------------------|


G|------------------------------------------------------|
D|------------------------------------------------------|   x3
A|--5555555--111--33333---------------------------------|
D|------------------------------------------------------|

G|------------------------------------------------------|
D|------------------------------------------------------|   
A|--11111111--33333333----------------------------------|
d|------------------------------------------------------|




VERSE

G|------------------------------------------------------|
D|------------------------------------------------------| 
A|--555555-----------55555---------55555----------------|  
D|----------77777-----------77777---------55555---------|   
                                                             
G|------------------------------------------------------|     
D|------------------------------------------------------|      
A|--1~~~----3~~~----------------------------------------|       
D|------------------------------------------------------|        
                                                                  
                                                                  
G|------------------------------------------------------|         
D|------------------------------------------------------|         
A|--555555-----------55555---------55555----------------|       
D|----------77777-----------55555---------55555---------|      
                                                              
G|------------------------------------------------------|    
D|------------------------------------------------------|   
A|--1~~~----3~~~----------------------------------------|
D|------------------------------------------------------|

BRIDGE

G|------------------------------------------------------|
D|------------------------------------------------------|   x3
A|--5555555--111--33333---------------------------------|
D|------------------------------------------------------|

G|------------------------------------------------------|
D|------------------------------------------------------|   
A|--11111111--33333333----------------------------------|
D|------------------------------------------------------|


VERSE

G|------------------------------------------------------|
D|------------------------------------------------------| 
A|--555555-----------55555---------55555----------------|  
D|----------77777-----------77777---------55555---------|   
                                                             
G|------------------------------------------------------|     
D|------------------------------------------------------|      
A|--1~~~----3~~~----------------------------------------|       
D|------------------------------------------------------|        
                                                                  
                                                                  
G|------------------------------------------------------|         
D|------------------------------------------------------|         
A|--555555-----------55555---------55555----------------|       
D|----------77777-----------55555---------55555---------|      
                                                              
G|------------------------------------------------------|    
D|------------------------------------------------------|   
A|--1~~~----3~~~----------------------------------------|
D|------------------------------------------------------|

G|------------------------------------------------------|
D|------------------------------------------------------| x3 
A|--5~~---3~~---1111------------------------------------|
D|------------------------------------------------------|

G|------------------------------------------------------|
D|------------------------------------------------------|
A|------------------------------------------------------|
D|--55555555-7------------------------------------------

CHORUS


G|------------------------------------------------------|
D|------------------------------------------------------|   x3
A|--5555555--111--33333---------------------------------|
D|------------------------------------------------------|

G|------------------------------------------------------|
D|------------------------------------------------------|   
A|--11111111--33333333----------------------------------|
D|------------------------------------------------------|

Verse
G|------------------------------------------------------|
D|------------------------------------------------------|   x3\\
A|-------------5-5~------------5-5~---------------------|      \\
D|--777777777---------77777777--------------------------|       \\
                                                                 x2
G|------------------------------------------------------|       //
D|------------------------------------------------------|      // 
A|-------------5-5~--------------1~-3~------------------|     //
D|--777777777----------777777777------------------------|



G|------------------------------------------------------|
D|------------------------------------------------------| x3 
A|--5~~---3~~---1111------------------------------------|
D|------------------------------------------------------|

G|------------------------------------------------------|
D|------------------------------------------------------|
A|------------------------------------------------------|
D|--55555555-7------------------------------------------|

G|------------------------------------------------------|
D|------------------------------------------------------| x3 \\
A|--5555555--111--33333---------------------------------|     \\
D|------------------------------------------------------|      \\
                                                                x5
G|------------------------------------------------------|      //   
D|------------------------------------------------------|     //  
A|--11111111--33333333----------------------------------|    // 
D|------------------------------------------------------|

ends with

G|-----------------------------------|
D|-----------------------------------|   
A|--5~~~~~~--------------------------|
D|-----------------------------------|





Comments


Popular Heaven Shall Burn tabs & chords
Numbing The Pain Bass Tabs
Profane Believers Bass Tabs
Stay The Course Bass Tabs
Architects Of The Apocalypse Tabs
Armia Tabs
Endzeit 1 Tabs
Equinox Tabs
Murderers Of The Murderers Tabs
Stay The Course Tabs
Weapon They Fear Tabs


Song lyrics



↑ Back to top | Tablatures and chords are parodies/interpretations of the original songs. You may use it for private study, scholarship, research or language learning purposes only
© 2014 AZChords.com Contact us | Privacy policy | DMCA | Add/correct tabs | Request tabs | Top 50 tabs