>
 >
Profane Believers

Profane Believers Bass Tabs

Heaven Shall Burn - Profane Believers chords, tabs, tablatures, lyrics

Guitar lessons | Add/correct | Request | Top 50 tabs Artists:  A B C D E F G H I J K L M N O P Q R S T U V W X Y Z 0-9

Profane Believers Bass Tabs – Heaven Shall Burn

CD, Sheet music, Poster

Do you like Profane Believers? Share with your friends now
Bass TabsBass Tabs v2Tabs
Spur 4
     W                   H        S S S S S S S S    W                 
F||-------------------|---------------------------|-------------------|
C||-------------------|---------------------------|-------------------|
G||-------------------|---------------------------|-------------------|
C||--0----------------|--L--------3-1-0-5-3-0-6-5-|--0----------------|


  H        S S S S S S S S    S  S S S S S S S S  S S S S S S S  
---------------------------|------------------------------------|
---------------------------|------------------------------------|
---------------------------|------------------------------------|
--L--------0-0-0-0-0-0-0-0-|--3S-0-0-0-0-5-0-1-3S-0-0-0-0-1-0-1-|


  S S S S S S S S S S S S S S S S    S  S S S S S S S S  S S S S S S S  
----------------------------------|------------------------------------|
----------------------------------|------------------------------------|
----------------------------------|------------------------------------|
--3-0-0-0-0-5-0-1-3-1-0-5-3-0-6-5-|--3S-0-0-0-0-5-0-1-3S-0-0-0-0-1-0-1-|


  S S S S S S S S S S S S S S S S      S  S S S S E.  S  S S S S E.   
----------------------------------||---------------------------------|
----------------------------------||*--------------------------------|
----------------------------------||*--------------------------------|
--3-0-0-0-0-5-0-1-3-1-0-5-3-0-6-5-||---3S-0-0-0-0-----3S-0-0-0-0-----|


  S  S S S S E.  S S S S S S S S      S  S S S S E.  S  S S S  S S S  S  
----------------------------------||------------------------------------|
---------------------------------*||------------------------------------|
---------------------------------*||------------------------------------|
--3S-0-0-0-0-----3-1-0-5-3-0-6-5--||--3S-0-0-0-0-----3S-1---5S-3---6S-5-|


  S S  S S S  S S  S      S S S S S S S S S S S S S S S S  
---------------------||-----------------------------------|
---------------------||*----------------------------------|
---------------------||*----------------------------------|
----5S-3---5S-3-6S-5-||---0-0-0-0-0-0-0-0-8-8-8-8-8-8-8-8-|


  S S S S S S S S S S S S S S S S       S S S S S S S S S S S S S S S S  
-----------------------------------||-----------------------------------|
----------------------------------*||*----------------------------------|
----------------------------------*||*----------------------------------|
--5-5-5-5-5-5-5-5-5-5-5-5-5-5-5-5--||---0-0-0-0-0-0-0-0-8-8-8-8-8-8-8-8-|


  S S S S S S S S S S S S S S S S      H        Q    Q     
-----------------------------------||---------------------|
----------------------------------*||---------------------|
----------------------------------*||---------------------|
--5-5-5-5-5-5-5-5-5-5-5-5-5-5-5-5--||--0--------8----5----|


  H        S S S E  S E     H        Q    Q       H        H         
-------------------------|---------------------|--------------------|
-------------------------|---------------------|--------------------|
-------------------------|---------------------|--------------------|
--0--------0-5-8-5--0-3--|--0--------8----5----|--0-----------------|


    S S S S S S S S S S S S S S S S    S S S S S S S S S S S E  S E     
|-----------------------------------|---------------------------------||
|*----------------------------------|--------------------------------*||
|*----------------------------------|--------------------------------*||
|---0-0-0-0-0-0-0-0-8-8-8-8-5-5-5-5-|--0-0-0-0-0-0-0-0-0-2-3-5--0-3---||


  S S S S S S S S S S S E  S E       S S S S S S S S S S S S S S S S  
--------------------------------||-----------------------------------|
--------------------------------||*----------------------------------|
--------------------------------||*----------------------------------|
--0-0-0-0-0-0-0-0-0-2-3-5--0-3--||---0-0-0-0-0-0-0-0-8-8-8-8-5-5-5-5-|


  S S S S S S S S S S S E  S E       S S S S S S S S H         
---------------------------------||---------------------------|
--------------------------------*||---------------------------|
--------------------------------*||---------------------------|
--0-0-0-0-0-0-0-0-0-2-3-5--0-3---||--0-0-0-0-0-0-0-0-0--------|


    S  S S S S S S S S  S S S S S S S    S S S S S S S S S S S S S S S S    
|-------------------------------------|-----------------------------------||
|*------------------------------------|----------------------------------*||
|*------------------------------------|----------------------------------*||
|---3S-0-0-0-0-5-0-1-3S-0-0-0-0-1-0-1-|--3-0-0-0-0-5-0-1-3-1-0-5-3-0-6-5--||


   S  S S S S E.  S  S S S S E.     S  S S S S E.  S S S S S S S S    
---------------------------------|----------------------------------||
*--------------------------------|---------------------------------*||
*--------------------------------|---------------------------------*||
---3S-0-0-0-0-----3S-0-0-0-0-----|--3S-0-0-0-0-----3-1-0-5-3-0-6-5--||


   S S S S S S S S S S S S S S S S    S S S S S S S S S S S S S S S S    
-----------------------------------|-----------------------------------||
*----------------------------------|----------------------------------*||
*----------------------------------|----------------------------------*||
---0-0-0-0-0-0-0-0-8-8-8-8-8-8-8-8-|--5-5-5-5-5-5-5-5-5-5-5-5-5-5-5-5--||


   S S S S S S S S S S S S S S S S    S S S S S S S S S S S S S S S S    
-----------------------------------|-----------------------------------||
*----------------------------------|----------------------------------*||
*----------------------------------|----------------------------------*||
---0-0-0-0-0-0-0-0-8-8-8-8-8-8-8-8-|--5-5-5-5-5-5-5-5-5-5-5-5-5-5-5-5--||


   S S S S S S S S S S S S S S S S    S S S S S S S S S S S E  S E     
-----------------------------------|---------------------------------||
*----------------------------------|--------------------------------*||
*----------------------------------|--------------------------------*||
---0-0-0-0-0-0-0-0-8-8-8-8-5-5-5-5-|--0-0-0-0-0-0-0-0-0-2-3-5--0-3---||


  S S S S S S S S S S S E  S E       S S S S S S S S S S S S S S S S  
--------------------------------||-----------------------------------|
--------------------------------||*----------------------------------|
--------------------------------||*----------------------------------|
--0-0-0-0-0-0-0-0-0-2-3-5--0-3--||---0-0-0-0-0-0-0-0-8-8-8-8-5-5-5-5-|


  S S S S S S S S S S S E  S E       S S S S S S S S H         
---------------------------------||---------------------------|
--------------------------------*||---------------------------|
--------------------------------*||---------------------------|
--0-0-0-0-0-0-0-0-0-2-3-5--0-3---||--0-0-0-0-0-0-0-0-0--------|


  W                   W                   W                       
-------------------|-------------------|-------------------|-----|
-------------------|-------------------|-------------------|-----|
-------------------|-------------------|-------------------|-----|
--0----------------|--L----------------|--L----------------|-----|


    S  S S S S S S  S S S  S S S S S  S    S  S S S S S S  S S S S S S S S S    
|---------------------------------------|-------------------------------------||
|*--------------------------------------|------------------------------------*||
|*--------------------------------------|------------------------------------*||
|---3S-1-0-5-0-0-3S-1-0-3S-1-0-5-0-3S-1-|--3S-1-0-5-0-0-3S-1-0-1-1-1-0-3-3-3--||


   S  S S S S S S  S S S  S S S S S  S    S  S S S S S S  S S S S S S S S S    
---------------------------------------|-------------------------------------||
*--------------------------------------|------------------------------------*||
*--------------------------------------|------------------------------------*||
---3S-1-0-5-0-0-3S-1-0-3S-1-0-5-0-3S-1-|--3S-1-0-5-0-0-3S-1-0-1-1-1-0-3-3-3--||


  S  S S S S S S  S H             S S S S S S S S S S S S S S S S  
-----------------------------||-----------------------------------|
-----------------------------||*----------------------------------|
-----------------------------||*----------------------------------|
--3S-1-0-5-0-0-3S-1-0--------||---0-0-0-0-0-0-0-0-8-8-8-8-5-5-5-5-|


  S S S S S S S S S S S E  S E       S S S S S S S S S S S E  S E   
---------------------------------||--------------------------------|
--------------------------------*||--------------------------------|
--------------------------------*||--------------------------------|
--0-0-0-0-0-0-0-0-0-2-3-5--0-3---||--0-0-0-0-0-0-0-0-0-2-3-5--0-3--|


    S S S S S S S S S S S S S S S S    S S S S S S S S S S S E  S E     
|-----------------------------------|---------------------------------||
|*----------------------------------|--------------------------------*||
|*----------------------------------|--------------------------------*||
|---0-0-0-0-0-0-0-0-8-8-8-8-5-5-5-5-|--0-0-0-0-0-0-0-0-0-2-3-5--0-3---||


  S S S S S S S S H                      
---------------------------|-----------||
---------------------------|-----------||
---------------------------|-----------||
--0-0-0-0-0-0-0-0-0--------|-----------||




Duration Legend
---------------
W - whole
H - half
Q - quarter
E - 8th
S - 16th
T - 32nd
X - 64th
. - note dotted
|-n-|  - n-tuplets


Tablature Legend
----------------
L - tied note
x - dead note
g - grace note
(n) - ghost note
> - accentuded note
NH - natural harmonic
AH - artificial harmonic
TH - tapped harmonic
SH - semi harmonic
PH - pitch harmonic
h - hammer on
p - pull off
b - bend
br - bendRelease
pb - preBend
pbr - preBendRelease
brb - bendReleaseBend
\n/ - tremolo bar dip
\n - tremolo bar dive
-/n - tremolo bar Release up
/n\ - tremolo bar inverted dip
/n - tremolo bar return
-\n - tremolo bar Release down
S - shift slide
s - legato slide
/ -  slide into from below or out of upwards
\ -  slide into from above or out of downwards
~ - vibrato
W - wide vibrato
tr - trill
TP - tremolo picking
T - tapping
S - slap
P - pop
< - fade in
^ - brush up
v - brush down





Comments


Popular Heaven Shall Burn tabs & chords
Black Tears Bass Tabs
Bleeding To Death Bass Tabs
Numbing The Pain Bass Tabs
Awoken Tabs
Bleeding To Death Tabs
Dying In Silence Tabs
Murderers Of The Murderers Tabs
Only Truth Tabs
Quest For Resistance Tabs
Voice Of The Voiceless Tabs


Song lyrics



↑ Back to top | Tablatures and chords are parodies/interpretations of the original songs. You may use it for private study, scholarship, research or language learning purposes only
© 2014 AZChords.com Contact us | Privacy policy | DMCA | Add/correct tabs | Request tabs | Top 50 tabs