>
 >
Profane Believers

Profane Believers Guitar Tabs

Heaven Shall Burn - Profane Believers chords, tabs, tablatures, lyrics

Guitar lessons | Add/correct | Request | Top 50 tabs Artists:  A B C D E F G H I J K L M N O P Q R S T U V W X Y Z 0-9

Profane Believers Guitar Tabs – Heaven Shall Burn

CD, Sheet music, Poster

Do you like Profane Believers? Share with your friends now
Bass TabsBass Tabs v2Tabs
Spur 1
          PM PM PM              PM PM PM   PM    
     S  S S  S  S  S  S S  S  S S  S  S  S S  S  
D||---------------------------------------------|
A||---------------------------------------------|
F||---------------------------------------------|
C||---------------------------------------------|
G||-------0--0--0---------------0--0--0----0----|
C||--3S-0-0--0--0--5S-0-1S-3S-0-0--0--0--1-0--1-|


       PM PM PM            PM     PM      
  S  S S  S  S  S  S S S S S  S S S  S S  
-----------------------------------------|
-----------------------------------------|
-----------------------------------------|
-----------------------------------------|
-------0--0--0-------1-3-1-0--5-3-0--6-5-|
--3S-0-0--0--0--5S-0-1-3-1-0--5-3-0--6-5-|


       PM PM PM              PM PM PM   PM    
  S  S S  S  S  S  S S  S  S S  S  S  S S  S  
---------------------------------------------|
---------------------------------------------|
---------------------------------------------|
---------------------------------------------|
-------0--0--0---------------0--0--0----0----|
--3S-0-0--0--0--5S-0-1S-3S-0-0--0--0--1-0--1-|


       PM PM PM        PM PM PM PM PM PM PM PM  
  S  S S  S  S  S  S S S  S  S  S  S  S  S  S   
-----------------------------------------------|
-----------------------------------------------|
-----------------------------------------------|
-----------------------------------------------|
-------0--0--0---------0--0--0--0--0--0--0--0--|
--3S-0-0--0--0--5S-0-1-0--0--0--0--0--0--0--0--|


       PM PM PM              PM PM PM   PM    
  S  S S  S  S  S  S S  S  S S  S  S  S S  S  
---------------------------------------------|
---------------------------------------------|
---------------------------------------------|
---------------------------------------------|
-------0--0--0---------------0--0--0----0----|
--3S-0-0--0--0--5S-0-1S-3S-0-0--0--0--1-0--1-|


       PM PM PM            PM     PM      
  S  S S  S  S  S  S S S S S  S S S  S S  
-----------------------------------------|
-----------------------------------------|
-----------------------------------------|
-----------------------------------------|
-------0--0--0-------1-3-1-0--5-3-0--6-5-|
--3S-0-0--0--0--5S-0-1-3-1-0--5-3-0--6-5-|


       PM PM PM              PM PM PM   PM    
  S  S S  S  S  S  S S  S  S S  S  S  S S  S  
---------------------------------------------|
---------------------------------------------|
---------------------------------------------|
---------------------------------------------|
-------0--0--0---------------0--0--0----0----|
--3S-0-0--0--0--5S-0-1S-3S-0-0--0--0--1-0--1-|


       PM PM PM            PM     PM      
  S  S S  S  S  S  S S S S S  S S S  S S  
-----------------------------------------|
-----------------------------------------|
-----------------------------------------|
-----------------------------------------|
-------0--0--0-------1-3-1-0--5-3-0--6-5-|
--3S-0-0--0--0--5S-0-1-3-1-0--5-3-0--6-5-|


         PM PM PM          PM PM PM   PM    
    S  S S  S  S  E.  S  S S  S  S  S S  S  
|------------------------------------------|
|------------------------------------------|
|*-----------------------------------------|
|*-----------------------------------------|
|--------0--0--0-----------0--0--0----0----|
|---3S-0-0--0--0------3S-0-0--0--0--1-0--1-|


       PM PM PM         PM     PM        
  S  S S  S  S  E.  S S S  S S S  S S    
---------------------------------------||
---------------------------------------||
--------------------------------------*||
--------------------------------------*||
-------0--0--0------3-1-0--5-3-0--6-5--||
--3S-0-0--0--0------3-1-0--5-3-0--6-5--||


       PM PM PM                                               
  S  S S  S  S  E.  S  S S S  S S S  S    S S  S S S  S S  S  
---------------------------------------|---------------------|
---------------------------------------|---------------------|
---------------------------------------|---------------------|
---------------------------------------|---------------------|
-------0--0--0------3S-1---5S-3---6S-5-|----5S-3---5S-3-6S-5-|
--3S-0-0--0--0------3S-1---5S-3---6S-5-|----5S-3---5S-3-6S-5-|


        PM   PM   PM   PM    PM    PM   PM    
    S S S  S S  S S  S S   S S   S S  S S  S  
|--------------------------------------------|
|--------------------------------------------|
|*-------------------------------------------|
|*-------------------------------------------|
|-----8----8----7----7----10----10----7----8-|
|---0---0----0----0----8-----8-----8----8----|


  PM   PM   PM   PM   PM   PM   PM          
  S  S S  S S  S S  S S  S S  S S  S S S    
------------------------------------------||
------------------------------------------||
-----------------------------------------*||
-----------------------------------------*||
-----8----8----7----7----5----5----7-7-7--||
--5----5----5----5----5----5----5---------||


   PM    PM    PM    PM    PM    PM    PM    PM     
   S   S S   S S   S S   S S   S S   S S   S S   S  
---------------------------------------------------|
---------------------------------------------------|
*--------------------------------------------------|
*--------------------------------------------------|
------12----12----10----10----13----13----10----12-|
---0-----0-----0-----0-----8-----8-----8-----8-----|


  PM    PM    PM    PM    PM   PM   PM                                   
  S   S S   S S   S S   S S  S S  S S   S  S  S      H        Q    Q     
-------------------------------------------------||---------------------|
-------------------------------------------------||---------------------|
------------------------------------------------*||---------------------|
------------------------------------------------*||---------------------|
-----12----12----10----10----8----8----10-10-10--||--0--------8----5----|
--5-----5-----5-----5-----5----5----5------------||--0--------8----5----|


  H        S S S E  S E     H        Q    Q       H        S S S E  S E   
-------------------------|---------------------|-------------------------|
-------------------------|---------------------|-------------------------|
-------------------------|---------------------|-------------------------|
-------------------------|---------------------|-------------------------|
--0--------0-2-3-5--0-3--|--0--------8----5----|--0--------0-2-3-5--0-3--|
--0--------0-2-3-5--0-3--|--0--------8----5----|--0--------0-2-3-5--0-3--|


    S S S E  S S S S S S E  S S S    S S S E  S S S S S S E  S E     
|---------------------------------|--------------------------------||
|---------------------------------|--------------------------------||
|*--------------------------------|-------------------------------*||
|*--------------------------------|-------------------------------*||
|-----5-7-8--7-5-3---5-7----8-7-5-|----5-7-8--7-5-3-0-2-3-5--0-3---||
|---0--------------8-----5--------|--0--------------0-2-3-5--0-3---||


  S S S E  S S S S S S E  S E       S S S E  S S S S S S E  S S S  
-------------------------------||---------------------------------|
-------------------------------||---------------------------------|
-------------------------------||*--------------------------------|
-------------------------------||*--------------------------------|
----5-7-8--7-5-3-0-2-3-5--0-3--||-----5-7-8--7-5-3---5-7----8-7-5-|
--0--------------0-2-3-5--0-3--||---0--------------8-----5--------|


  S S S E  S S S S S S E  S E       S S S E  S S S H         
--------------------------------||--------------------------|
--------------------------------||--------------------------|
-------------------------------*||--------------------------|
-------------------------------*||--------------------------|
----5-7-8--7-5-3-0-2-3-5--0-2---||----5-7-8--7-5-3-L--------|
--0--------------0-2-3-5--0-2---||--0-----------------------|


         PM PM PM              PM PM PM   PM    
    S  S S  S  S  S  S S  S  S S  S  S  S S  S  
|----------------------------------------------|
|----------------------------------------------|
|*---------------------------------------------|
|*---------------------------------------------|
|--------0--0--0---------------0--0--0----0----|
|---3S-0-0--0--0--5S-0-1S-3S-0-0--0--0--1-0--1-|


       PM PM PM            PM     PM        
  S  S S  S  S  S  S S S S S  S S S  S S    
------------------------------------------||
------------------------------------------||
-----------------------------------------*||
-----------------------------------------*||
-------0--0--0-------1-3-1-0--5-3-0--6-5--||
--3S-0-0--0--0--5S-0-1-3-1-0--5-3-0--6-5--||


        PM PM PM          PM PM PM   PM    
   S  S S  S  S  E.  S  S S  S  S  S S  S  
------------------------------------------|
------------------------------------------|
*-----------------------------------------|
*-----------------------------------------|
--------0--0--0-----------0--0--0----0----|
---3S-0-0--0--0------3S-0-0--0--0--1-0--1-|


       PM PM PM         PM     PM        
  S  S S  S  S  E.  S S S  S S S  S S    
---------------------------------------||
---------------------------------------||
--------------------------------------*||
--------------------------------------*||
-------0--0--0------3-1-0--5-3-0--6-5--||
--3S-0-0--0--0------3-1-0--5-3-0--6-5--||


   PM   PM   PM   PM   PM    PM    PM   PM    
   S  S S  S S  S S  S S   S S   S S  S S  S  
---------------------------------------------|
---------------------------------------------|
*--------------------------------------------|
*--------------------------------------------|
------8----8----7----7----10----10----7----8-|
---0----0----0----0----8-----8-----8----8----|


  PM   PM   PM   PM   PM   PM   PM          
  S  S S  S S  S S  S S  S S  S S  S S S    
------------------------------------------||
------------------------------------------||
-----------------------------------------*||
-----------------------------------------*||
-----8----8----7----7----5----5----7-7-7--||
--5----5----5----5----5----5----5---------||


   PM    PM    PM    PM    PM    PM    PM    PM     
   S   S S   S S   S S   S S   S S   S S   S S   S  
---------------------------------------------------|
---------------------------------------------------|
*--------------------------------------------------|
*--------------------------------------------------|
------12----12----10----10----13----13----10----12-|
---0-----0-----0-----0-----8-----8-----8-----8-----|


  PM    PM    PM    PM    PM   PM   PM             
  S   S S   S S   S S   S S  S S  S S   S  S  S    
-------------------------------------------------||
-------------------------------------------------||
------------------------------------------------*||
------------------------------------------------*||
-----12----12----10----10----8----8----10-10-10--||
--5-----5-----5-----5-----5----5----5------------||


   S S S E  S S S S S S E  S S S    S S S E  S S S S S S E  S E     
---------------------------------|--------------------------------||
---------------------------------|--------------------------------||
*--------------------------------|-------------------------------*||
*--------------------------------|-------------------------------*||
-----5-7-8--7-5-3---5-7----8-7-5-|----5-7-8--7-5-3-0-2-3-5--0-3---||
---0--------------8-----5--------|--0--------------0-2-3-5--0-3---||


  S S S E  S S S S S S E  S E       S S S E  S S S S S S E  S S S  
-------------------------------||---------------------------------|
-------------------------------||---------------------------------|
-------------------------------||*--------------------------------|
-------------------------------||*--------------------------------|
----5-7-8--7-5-3-0-2-3-5--0-3--||-----5-7-8--7-5-3---5-7----8-7-5-|
--0--------------0-2-3-5--0-3--||---0--------------8-----5--------|


  S S S E  S S S S S S E  S E       S S S E  S S S H         
--------------------------------||--------------------------|
--------------------------------||--------------------------|
-------------------------------*||--------------------------|
-------------------------------*||--------------------------|
----5-7-8--7-5-3-0-2-3-5--0-3---||----5-7-8--7-5-3-L--------|
--0--------------0-2-3-5--0-3---||--0-----------------------|


       PM   PM PM      PM      PM   PM       
  S  S S  S S  S  S  S S  S  S S  S S  S  S  
--------------------------------------------|
--------------------------------------------|
--------------------------------------------|
--------------------------------------------|
--3S-1-0--5-0--0--3S-1-0--3S-1-0--5-0--3S-1-|
--3S-1-0--5-0--0--3S-1-0--3S-1-0--5-0--3S-1-|


       PM   PM PM      PM                
  S  S S  S S  S  S  S S  S S S S S S S  
----------------------------------------|
----------------------------------------|
----------------------------------------|
----------------------------------------|
--3S-1-0--5-0--0--3S-1-0--1-1-1---3-3-3-|
--3S-1-0--5-0--0--3S-1-0--1-1-1-0-3-3-3-|


       PM   PM PM      PM      PM   PM       
  S  S S  S S  S  S  S S  S  S S  S S  S  S  
--------------------------------------------|
--------------------------------------------|
--------------------------------------------|
--------------------------------------------|
--3S-1-0--5-0--0--3S-1-0--3S-1-0--5-0--3S-1-|
--3S-1-0--5-0--0--3S-1-0--3S-1-0--5-0--3S-1-|


       PM   PM PM      PM                
  S  S S  S S  S  S  S S  S S S S S S S  
----------------------------------------|
----------------------------------------|
----------------------------------------|
----------------------------------------|
--3S-1-0--5-0--0--3S-1-0--1-1-1---3-3-3-|
--3S-1-0--5-0--0--3S-1-0--1-1-1-0-3-3-3-|


         PM   PM PM      PM      PM   PM       
    S  S S  S S  S  S  S S  S  S S  S S  S  S  
|---------------------------------------------|
|---------------------------------------------|
|*--------------------------------------------|
|*--------------------------------------------|
|---3S-1-0--5-0--0--3S-1-0--3S-1-0--5-0--3S-1-|
|---3S-1-0--5-0--0--3S-1-0--3S-1-0--5-0--3S-1-|


       PM   PM PM      PM                  
  S  S S  S S  S  S  S S  S S S S S S S    
-----------------------------------------||
-----------------------------------------||
----------------------------------------*||
----------------------------------------*||
--3S-1-0--5-0--0--3S-1-0--1-1-1---3-3-3--||
--3S-1-0--5-0--0--3S-1-0--1-1-1-0-3-3-3--||


        PM   PM PM      PM      PM   PM       
   S  S S  S S  S  S  S S  S  S S  S S  S  S  
---------------------------------------------|
---------------------------------------------|
*--------------------------------------------|
*--------------------------------------------|
---3S-1-0--5-0--0--3S-1-0--3S-1-0--5-0--3S-1-|
---3S-1-0--5-0--0--3S-1-0--3S-1-0--5-0--3S-1-|


       PM   PM PM      PM                  
  S  S S  S S  S  S  S S  S S S S S S S    
-----------------------------------------||
-----------------------------------------||
----------------------------------------*||
----------------------------------------*||
--3S-1-0--5-0--0--3S-1-0--1-1-1---3-3-3--||
--3S-1-0--5-0--0--3S-1-0--1-1-1-0-3-3-3--||


       PM   PM PM      PM                                                   
  S  S S  S S  S  S  S S  S S S S S S S      S S S E  S S S S S S E  S S S  
----------------------------------------||---------------------------------|
----------------------------------------||---------------------------------|
----------------------------------------||*--------------------------------|
----------------------------------------||*--------------------------------|
--3S-1-0--5-0--0--3S-1-0--1-1-1---3-3-3-||-----5-7-8--7-5-3---5-7----8-7-5-|
--3S-1-0--5-0--0--3S-1-0--1-1-1-0-3-3-3-||---0--------------8-----5--------|


  S S S E  S S S S S S E  S E       S S S E  S S S S S S E  S E   
--------------------------------||-------------------------------|
--------------------------------||-------------------------------|
-------------------------------*||-------------------------------|
-------------------------------*||-------------------------------|
----5-7-8--7-5-3-0-2-3-5--0-3---||----5-7-8--7-5-3-0-2-3-5--0-3--|
--0--------------0-2-3-5--0-3---||--0--------------0-2-3-5--0-3--|


    S S S E  S S S S S S E  S S S    S S S E  S S S S S S E  S E     
|---------------------------------|--------------------------------||
|---------------------------------|--------------------------------||
|*--------------------------------|-------------------------------*||
|*--------------------------------|-------------------------------*||
|-----5-7-8--7-5-3---5-7----8-7-5-|----5-7-8--7-5-3-0-2-3-5--0-3---||
|---0--------------8-----5--------|--0--------------0-2-3-5--0-3---||


  S S S E  S S S H           S S E  S S  Q.       Q       
--------------------------|-----------------------------||
--------------------------|-----------------------------||
--------------------------|-----------------------------||
--------------------------|-----------------------------||
----5-7-8--7-5-3-L--------|--5-7-8--7-3-----------------||
--0-----------------------|-------------12S------(0)----||




Duration Legend
---------------
W - whole
H - half
Q - quarter
E - 8th
S - 16th
T - 32nd
X - 64th
. - note dotted
|-n-|  - n-tuplets


Tablature Legend
----------------
L - tied note
x - dead note
g - grace note
(n) - ghost note
> - accentuded note
NH - natural harmonic
AH - artificial harmonic
TH - tapped harmonic
SH - semi harmonic
PH - pitch harmonic
h - hammer on
p - pull off
b - bend
br - bendRelease
pb - preBend
pbr - preBendRelease
brb - bendReleaseBend
\n/ - tremolo bar dip
\n - tremolo bar dive
-/n - tremolo bar Release up
/n\ - tremolo bar inverted dip
/n - tremolo bar return
-\n - tremolo bar Release down
S - shift slide
s - legato slide
/ -  slide into from below or out of upwards
\ -  slide into from above or out of downwards
~ - vibrato
W - wide vibrato
tr - trill
TP - tremolo picking
T - tapping
S - slap
P - pop
< - fade in
^ - brush up
v - brush down





Comments


Popular Heaven Shall Burn tabs & chords
Bleeding To Death Bass Tabs
Profane Believers Bass Tabs
Profane Believers 2 Bass Tabs
Armia Tabs
Bleeding To Death Tabs
Endzeit 1 Tabs
Not My God Tabs
Numbing The Pain Tabs
Only Truth Tabs
Weapon They Fear Tabs


Song lyrics



↑ Back to top | Tablatures and chords are parodies/interpretations of the original songs. You may use it for private study, scholarship, research or language learning purposes only
© 2014 AZChords.com Contact us | Privacy policy | DMCA | Add/correct tabs | Request tabs | Top 50 tabs