» » »

Heaven Shall Burn, Endzeit Bass tabs (ver.1)

Artists:  A B C D E F G H I J K L M N O P Q R S T U V W X Y Z # 

Endzeit Bass tabs (ver.1)

Heaven Shall Burn Tabs
 Rating:
4/5 (5 votes)
Endzeit lessons Tabs too difficult? Try these video lessons and learn fast
1
                -------------------------------------------------------------------------------
-------------------------------------------------------------------------------

Tuning: Drop C (CDAG)

Intro Pt.I
G|------------------|
D|------------------|
A|------------------|
C|-00-00-00-00-0000-| x4

Intro Pt.II
G|-------------------------|
D|-------------------------|
A|-------------------------|
C|-00--0000--00--00--3-1-4-| x3

Verse
G|---------------------------------|---------------------------------|
A|---------------------------------|---------------------------------|
D|---------------------------------|---------------------------------|
C|-00-1-0-0-0-3-1--0-0-0-4-3-0-3-1-|-00-1-0-0-0-3-1--0-0-0-1-4-4-4-4-| x4

Interlude
G|------------------------------------------|------------------------------------------|
A|------5555--------------------------------|------5555--------------------------------|
D|----------5555----8888-7777-8888-10101010-|----------5555----8888-7777-10101010-8888-|
C|-0000---------0000------------------------|-0000---------0000------------------------| x2

Verse
G|---------------------------------|---------------------------------|
A|---------------------------------|---------------------------------|
D|---------------------------------|---------------------------------|
C|-00-1-0-0-0-3-1--0-0-0-4-3-0-3-1-|-00-1-0-0-0-3-1--0-0-0-1-4-4-4-4-| x2

Interlude
G|------------------------------------------|------------------------------------------|
A|------5555--------------------------------|------5555--------------------------------|
D|----------5555----8888-7777-8888-10101010-|----------5555----8888-7777-10101010-8888-|
C|-0000---------0000------------------------|-0000---------0000------------------------| x2

Bridge (I)
G|-----------------|-----------------|
A|-----------------|-----------------|
D|-----------------|-----------------|
C|-0-0-000-000-1-1-|-0-0-0-3-1-0-4-3-|

Verse
G|---------------------------------|---------------------------------|
A|---------------------------------|---------------------------------|
D|---------------------------------|---------------------------------|
C|-00-1-0-0-0-3-1--0-0-0-4-3-0-3-1-|-00-1-0-0-0-3-1--0-0-0-1-4-4-4-4-| x2

Chorus (Pt.I)
G|---------------|-----------------|
A|---------------|-----------------|
D|---------------|-----------------|
C|-00---0---00---|-0---0---0-0-----|

Chorus (Pt.II)
G|----------------------------|
A|----------------------------|
D|----------------------------|
C|-000---00----00---0---0-----|

Interlude
G|------------------------------------------|------------------------------------------|
A|------5555--------------------------------|------5555--------------------------------|
D|----------5555----8888-7777-8888-10101010-|----------5555----8888-7777-10101010-8888-|
C|-0000---------0000------------------------|-0000---------0000------------------------| x4

Alternate Bridge
|-----|-----|-----|--------|
|-----|-----|-----|--------|
|-----|-----|-----|--------|
|--0--|--8--|--0--|--10-8--| x2

Bridge (II)
G|-----------------|----------------|
A|-----------------|----------------|
D|-----------------|----------------|
C|-0-0-000-000-1-1-|-0-0-00-3-3-6-5-|

Chorus (Pt.I)
G|---------------|-----------------|
A|---------------|-----------------|
D|---------------|-----------------|
C|-00---0---00---|-0---0---0-0-----| x4

Verse
G|---------------------------------|---------------------------------|
A|---------------------------------|---------------------------------|
D|---------------------------------|---------------------------------|
C|-00-1-0-0-0-3-1--0-0-0-4-3-0-3-1-|-00-1-0-0-0-3-1--0-0-0-1-4-4-4-4-| x3

Chorus (Pt.I)
G|---------------|-----------------|
A|---------------|-----------------|
D|---------------|-----------------|
C|-00---0---00---|-0---0---0-0-----| x4

===============================================================================
            
Submit corrections

comments powered by Disqus
↑ Back to top | Heaven Shall Burn Bass for Endzeit. Lyrics for acoustic guitar and electric guitar. 1 Tablatures and chords are parodies/interpretations of the original songs. You may use it for private study, scholarship, research or language learning purposes only