» » »

Heaven Shall Burn, Endzeit Tabs (ver.1)

Artists:  A B C D E F G H I J K L M N O P Q R S T U V W X Y Z # 

Endzeit Tabs (ver.1)

Heaven Shall Burn Tabs
 Rating:
3.8/5 (5 votes)
Endzeit lessons Tabs too difficult? Try these video lessons and learn fast
                Intro 1:
  .. .. .. .. ....
|------------------|
|------------------|
|------------------|
|------------------|
|-00-00-00-00-0000-|
|-00-00-00-00-0000-|

Intro 2:
  . . . . . . . . . . . . . . . . . . . . . . . .
|--------------------------------------------------------|
|--------------------------------------------------------|
|--------------------------------------------------------|
|--------------------------------------------------3-1-4-|
|--------------------------------------------------3-1-4-|
|-0-0-0-0-0-0-0-0-0-0-0-0-1-1-1-1-0-0-0-0-0-0-0-0--3-1-4-|
  . . . . . . . . . . . . . . . .
|------------------------------------|
|------------------------------------|
|------------------------------------|(this is only played
|------------------------------------|on the first time of
|----------------------------------0-|playing intro 2)
|-0-0-0-0-0-0-0-0-0-0-0-0-1-1-0-1--0-|

Verse Pt.1:
  ..   .   .      .   .     .
|---------------------------------|
|---------------------------------|
|---------------------------------|
|---------------------------------|
|----1---0---3-1----0---4-3---3-1-|
|-00-1-0-0-0-3-1--0-0-0-4-3-0-3-1-|


|---------------------------------|
|---------------------------------|
|---------------------------------|
|---------------------------------|
|----1---0---3-1----0-----4-4-4-4-|
|-00-1-0-0-0-3-1--0-0-0-1-4-4-4-4-|






Verse Pt.2:
|-------------------------------------------------|
|-------------------------------------------------|
|-------14----12-------15----14----12-------12-14-|
|-12-12----12----12-12----12----12----12-12-------|
|-------------------------------------------------|
|-------------------------------------------------|


|-------------------------------------------------|
|-------------------------------------------------|
|-------14----12-------15----14----12-------15-14-|
|-12-12----12----12-12----12----12----12-12-------|
|-------------------------------------------------|
|-------------------------------------------------|


Interlude:
  ....         ....
|------------------------------------------|
|------------------------------------------|
|------------------------------------------|
|------5555--------------------------------|
|----------5555----8888-7777-8888-10101010-|
|-0000---------0000------------------------|

  ....         ....
|------------------------------------------|
|------------------------------------------|
|------------------------------------------|
|------5555--------------------------------|
|----------5555----8888-7777-10101010-8888-|
|-0000---------0000------------------------|














Bridge:
  . . ... ...
|-----------------|
|-----------------|
|-----------------|
|-----------------|
|-------------1-1-|
|-0-0-000-000-1-1-|
[1st and 3rd ending]   [2nd ending]      [4th ending]
  .  .      .       .   ..           .  ..
|-----------------|----------------|------------------|
|-----------------|----------------|------------------|
|-----------------|----------------|------------------|
|-----------------|----------------|------------------|
|---0---3-1---4-3-|---0----3-3-6-5-|---0----6-6-5-----|
|-0-0-0-3-1-0-4-3-|-0-0-00-3-3-6-5-|-0-0-00-------8-6-|



Chorus:             [1stending]      [2nd ending]
  ..   .   ..     .   .   . .       .   .   . .
|---------------|-----------------|-----------------|
|---------------|-----------------|-----------------|
|---------------|-----------------|-----------------|Pt. 1
|----7---5----8-|---7---5-----5-7-|---7---5-----8-7-|
|-00---0---00---|-0---0---0-0-----|-0---0---0-0-----|
|-00---0---00---|-0---0---0-0-----|-0---0---0-0-----|


  ...   ..    ..   .   .
|----------------------------|
|----------------------------|
|----------------------------|
|----5-----8-----7---5---5-7-|Pt. 2
|-000---00----00---0---0-----|
|-000---00----00---0---0-----|

Mega-Bridge:
|--------------------------------------------|
|--------------------------------------------|
|-------------------7------------------------|
|-3--5--7--5--7--8-----7--7--8-7-5-7-5-3-2-3-|
|--------------------------------------------|
|--------------------------------------------| 



Pre-Mega-Bridge:
  ...   ... ...    ...   ... ...
|--------------------------------|
|--------------------------------|
|--------------------------------|
|-000---000-000----000---000-000-|
|-000---000-000----000---000-000-|
|-000---000-000----000---000-000-|
 

Song Layout:
Intro 1=x4
Verse Pt.2=x3
Intro 2=x1
Verse Pt.1=x4
Interlude=x1
Verse Pt.2=x2


Interlude=x2
Bridge=x1
Verse Pt.2=x2
Chorus=x3
Interlude=x1
Pre-Mega-Bridge=x1
            
Submit corrections

comments powered by Disqus
↑ Back to top | Heaven Shall Burn Tabs for Endzeit. Lyrics for acoustic guitar and electric guitar. Tablatures and chords are parodies/interpretations of the original songs. You may use it for private study, scholarship, research or language learning purposes only