» » »

Endzeit Tabs (ver.2)

Artists:  A B C D E F G H I J K L M N O P Q R S T U V W X Y Z # 

Endzeit Tabs (ver.2)

Heaven Shall Burn
Rating:
4/5 (2 votes)

Tabs too difficult? Try these video lessons and learn fast.
                Intro 1:
|------------------|
|------------------|
|------------------|
|------------------|
|-00-00-00-00-0000-|
|-00-00-00-00-0000-|

Intro 2:
|-------------------------|
|-------------------------|
|-------------------------|
|-------------------3-1-4-|
|-00--0000--00--00--3-1-4-|
|-00--0000--00--00--3-1-4-|

Verse:
|---------------------------------|
|---------------------------------|
|---------------------------------|
|---------------------------------|
|----1---0---3-1----0---4-3---3-1-|
|-00-1-0-0-0-3-1--0-0-0-4-3-0-3-1-|

|---------------------------------|
|---------------------------------|
|---------------------------------|
|---------------------------------|
|----1---0---3-1----0-----4-4-4-4-|
|-00-1-0-0-0-3-1--0-0-0-1-4-4-4-4-|

Interlude:
|------------------------------------------|
|------------------------------------------|
|------------------------------------------|
|------5555--------------------------------|
|----------5555----8888-7777-8888-10101010-|
|-0000---------0000------------------------|

|------------------------------------------|
|------------------------------------------|
|------------------------------------------|
|------5555--------------------------------|
|----------5555----8888-7777-10101010-8888-|
|-0000---------0000------------------------|


Bridge:
|-----------------|
|-----------------|
|-----------------|
|-----------------|
|-------------1-1-|
|-0-0-000-000-1-1-|
[1st and 3rd ending]   [2nd ending]      [4th ending]
|-----------------|----------------|------------------|
|-----------------|----------------|------------------|
|-----------------|----------------|------------------|
|-----------------|----------------|------------------|
|---0---3-1---4-3-|---0----3-3-6-5-|---0----6-6-5-----|
|-0-0-0-3-1-0-4-3-|-0-0-00-3-3-6-5-|-0-0-00-------8-6-|

Chorus:             [1st ending]      [2nd ending]
|---------------|-----------------|-----------------|
|---------------|-----------------|-----------------|
|---------------|-----------------|-----------------|Pt. 1
|----7---5----8-|---7---5-----5-7-|---7---5-----8-7-|
|-00---0---00---|-0---0---0-0-----|-0---0---0-0-----|
|-00---0---00---|-0---0---0-0-----|-0---0---0-0-----|

|----------------------------|
|----------------------------|
|----------------------------|
|----5-----8-----7---5---5-7-|Pt. 2
|-000---00----00---0---0-----|
|-000---00----00---0---0-----|

Mega-Bridge:
|-----|-----|-----|--------|
|-----|-----|-----|--------|
|-----|-----|-----|--------|
|--0--|--8--|--0--|--10-8--|
|--0--|--8--|--0--|--10-8--|
|--0--|--8--|--0--|--10-8--| 

Song Layout:
Intro 1=x4
Intro 2=x3
Verse=x4
Interlude=x2
Verse=x2
Interlude=x2
Bridge=x1
Verse=x2


Chorus=x3
Interlude=x4
Mega-Bridge=x2
Bridge=x1
Chorus Pt. 1=x4
Verse=x3
Chorus Pt. 1=x4
            
Tabs too difficult? Try these video lessons and learn fast.




comments powered by Disqus
↑ Back to top | Tablatures and chords are parodies/interpretations of the original songs. You may use it for private study, scholarship, research or language learning purposes only