» » »

Atonement Tabs (ver.2)

Artists:  A B C D E F G H I J K L M N O P Q R S T U V W X Y Z # 

Atonement Tabs (ver.2)

Heaven Shall Burn
Rating:
4/5 (4 votes)

Hard to play? Try these video lessons and learn fast.
                Note: I just took a lot of time out of my day, learned this entire song by just messing
and learning it by ear.  It sounds practically perfect when playing over while the song
running.  Hope this helps some of you people out there that have been looking for these 
like i have


Part 1:
||----------------------------------||
|------------------------------------|
|------------------------------------|
|------------------------------------|
|------3-6-----6-5------5-3---5-5-6--|
|--0-3-----0-3------0-3-----0--------|

||----------------------------------||
|------------------------------------|
|------------------------------------|
|------------------------------------|
|------3-6-----6-5------5-3---6-6-5--|
|--0-3-----0-3------0-3-----0--------|

Part 2:
|-----------------------------------------------|
|-----------------------------------------------|
|-----------------------------------------------|
|-------5-3~-----5-3-1-1-3------5-3~---3~--1~---|
|---0-3------0-3------------0-3--------3~--1~---|
|-0------------------------------------3~--1~---|
| .                                             |
|-----------------------------------------------|
|-----------------------------------------------|
|-----------------------------------------------|
|-------5-3~-----5-3-1-1-3------5-3~---5-3~--1~-|
|---0-3------0-3------------0-3--------5-3~--1~-|
|-0------------------------------------5-3~--1~-|
  .

Part 3:                                    Part 4:
|--------------------------------------|   |----------|
|--------------------------------------|   |----------|
|--------------------------------------|   |----------|
|------3------1-----------3------3-1-4-|   |----5-3-6-|
|------3------1-----------3------3-1-4-|   |----5-3-6-|
|-0000-3-0000-1-0000-0000-3-0000-3-1-4-|   |-00-5-3-6-|
  ....   ....   .... ....   ....             ..


Part 5:
|----------------------------|
|----------------------------|
|----------------------------|
|---543---543---543---123----|
|---543---543---543---123----|
|-0-543-0-543-0-543-0-123----|
| . ... . ... . ... . ...    |
|----------------------------|
|----------------------------|
|----------------------------|
|---543---543---543--2-0-2-4-|
|---543---543---543--2-0-2-4-|
|-0-543-0-543-0-543--2-0-2-4-|
  . ... . ... . ...

Part 6:
|---------------------------------------------|
|---------------------------------------------|
|---------------------------------------------|
|----------33--------11--------44----33----11-|
|----------33--------11--------44----33----11-|
|-00000000-33-000000-11-000000-44-00-33-00-11-|
  ........    ......    ......    ..    ..


Song Layout:
Part 1= x2
Part 2= x2
Part 1= x2
Part 3= x3
Part 4= x1
Part 2= x1
Part 3= x3
Part 5= x2
Part 6= x2
Part 5= x1
Part 6= x1
Part 3= x1
Part 1= x4
Part 2= x1
            
Hard to play? Try these video lessons and learn fast. | Correct




comments powered by Disqus
↑ Back to top | Tablatures and chords are parodies/interpretations of the original songs. You may use it for private study, scholarship, research or language learning purposes only