>
 >
Atonement

Atonement Guitar Tabs

Heaven Shall Burn - Atonement chords, tabs, tablatures, lyrics

Guitar lessons | Add/correct | Request | Top 50 tabs Artists:  A B C D E F G H I J K L M N O P Q R S T U V W X Y Z 0-9

Atonement Guitar Tabs – Heaven Shall Burn

CD, Sheet music, Poster

Do you like Atonement? Share with your friends now
TabsTabs v2
unsure about the faster parts of this song. Any help is appreciated. Enjoy!


Tuning Drop C (C G C F A D)

Intro :00 - :05
Guitar 1
|---------------------------------|
|---------------------------------|
|---------------------------------|
|---------------------------------|
|---0-5-8---0-8-7---0-7-5---7-7-8-|
|-0-------0-------0-------0-------|

Intro :05 - :11
Guitar 2
|---------------------------------|
|---------------------------------|
|---------------------------------|
|---------------------------------|
|---0-5-8---0-8-7---0-7-5---8-8-7-|
|-0-------0-------0-------0-------|

Intro :11 - :17
Guitar 1
|---------------------------------|
|---------------------------------|
|---------------------------------|
|-------7-----7-5-----5-3---5-5-7-|
|---0-5-8---0-8-7---0-7-5---7-7-8-|
|-0-------0-------0-------0-------|

Intro :17 - :23
Guitar 2
|---------------------------------|
|---------------------------------|
|---------------------------------|
|-------7-----7-5-----5-3---7-7-5-|
|---0-5-8---0-8-7---0-7-5---8-8-7-|
|-0-------0-------0-------0-------|

:23 - :45
Guitars 1 & 2
|----------------|-----------------|
|----------------|-----------------|
|----------------|-----------------|
|-------7-5------|-------7-5-3-3-5-|
|---0-5----------|---0-5-----------|
|-0--------------|-0---------------|
|                                  |
Guitar 3                           |
|----------------------------------|
|----------------------------------|
|----------------------------------|
|-0--------------------------------|
|-0--------------------------------|
|-0--------------------------------|

Guitars 1 & 2
|----------------|-----------------|
|----------------|-----------------|
|----------------|-----------------|
|-------7-5------|---------5---3---|
|---0-5----------|---------5---3---|
|-0--------------|---------5---3---|
|                                  |
Guitar 3                           |
|----------------------------------|
|----------------------------------|
|----------------------------------|
|-0------------------------5---3---|
|-0------------------------5---3---|
|-0------------------------5---3---|

Guitars 1 & 2
|----------------|-----------------|
|----------------|-----------------|
|----------------|-----------------|
|-------7-5------|-------7-5-3-3-5-|
|---0-5----------|---0-5-----------|
|-0--------------|-0---------------|
|                                  |
Guitar 3                           |
|----------------------------------|
|----------------------------------|
|----------------------------------|
|-0--------------------------------|
|-0--------------------------------|
|-0--------------------------------|

Guitars 1 & 2
|----------------|-----------------|
|----------------|-----------------|
|----------------|-----------------|
|-------7-5------|------8--3---1---|
|---0-5----------|------8--3---1---|
|-0--------------|------8--3---1---|
|                                  |
Guitar 3                           |
|----------------------------------|
|----------------------------------|
|----------------------------------|
|-0---------------------8--3---1---|
|-0---------------------8--3---1---|
|-0---------------------8--3---1---|

:45 - 1:08
Guitars 1 & 2
|----------------|-----------------|
|----------------|-----------------|
|----------------|-----------------|
|-------7-5------|-------7-5-3-3-5-|
|---0-5----------|---0-5-----------|
|-0--------------|-0---------------|
|                                  |
Guitar 3                          /
|----------------|----------------|
|----------------|----------------|
|----------------|----------------|
|----------------|----------------|
|----------------|----------------|
|0000000000000000|0000000000000000|

Guitars 1 & 2
|----------------|-----------------|
|----------------|-----------------|
|----------------|-----------------|
|-------7-5------|---------5---3---|
|---0-5----------|---------5---3---|
|-0--------------|---------5---3---|
|                                  |
Guitar 3                           |
|----------------|-----------------|
|----------------|-----------------|
|----------------|-----------------|
|----------------|---------5---3---|
|----------------|---------5---3---|
|0000000000000000|0000000003---3---|

Guitars 1 & 2
|----------------|-----------------|
|----------------|-----------------|
|----------------|-----------------|
|-------7-5------|-------7-5-3-3-5-|
|---0-5----------|---0-5-----------|
|-0--------------|-0---------------|
|                                  |
Guitar 3                          /
|----------------|----------------|
|----------------|----------------|
|----------------|----------------|
|----------------|----------------|
|----------------|----------------|
|0000000000000000|0000000000000000|

Guitars 1 & 2
|----------------|-----------------|
|----------------|-----------------|
|----------------|-----------------|
|-------7-5------|------8--3---1---|
|---0-5----------|------8--3---1---|
|-0--------------|------8--3---1---|
|                                  |
Guitar 3                           |
|----------------|-----------------|
|----------------|-----------------|
|----------------|-----------------|
|----------------|------8--3---1---|
|----------------|------8--3---1---|
|0000000000000000|0000008--3---1---|

1:08 - 1:30
Guitar 1
|---------------------------------|
|---------------------------------|
|---------------------------------|
|---------------------------------|
|---0-5-8---0-8-7---0-7-5---7-7-8-|
|-0-------0-------0-------0-------|
|                                 |
Guitar 3                          |
|---------------------------------|
|---------------------------------|
|---------------------------------|
|-0-------------------------------|
|-0-------------------------------|
|-0-------------------------------|

Guitar 2
|---------------------------------|
|---------------------------------|
|---------------------------------|
|---------------------------------|
|---0-5-8---0-8-7---0-7-5---8-8-7-|
|-0-------0-------0-------0-------|

Guitar 1
|---------------------------------|
|---------------------------------|
|---------------------------------|
|-------7-----7-5-----5-3---5-5-7-|
|---0-5-8---0-8-7---0-7-5---7-7-8-|
|-0-------0-------0-------0-------|
|                                 |
Guitar 3                          |
|---------------------------------|
|---------------------------------|
|---------------------------------|
|-5-------------------------------|
|-5-------------------------------|
|-5-------------------------------|
|                                 |
Guitar ?                           \
|----------------------------------|
|----------------------------------|
|-7---7-10----10-9----9-7---7-10-9-|
|----------------------------------|
|----------------------------------|
|----------------------------------|

Guitar 2
|---------------------------------|
|---------------------------------|
|---------------------------------|
|-------7-----7-5-----5-3---7-7-5-|
|---0-5-8---0-8-7---0-7-5---8-8-7-|
|-0-------0-------0-------0-------|
|                                 |
|---------------------------------|
|---------------------------------|
|---------------------------------|
|-8-------------------------------|
|-8-------------------------------|
|-8-------------------------------|
|                                 |
Guitar ?                           \
|----------------------------------|
|----------------------------------|
|-7---7-10----10-9----9-7---7-10-9-|
|----------------------------------|
|----------------------------------|
|----------------------------------|

1:30 - 1:53
Guitars 1 & 2 (Play riff 3 times, then ending)
|---------------------------------------|
|---------------------------------------|
|---------------------------------------|
|------4------2----------4------4--3--6-|
|------4------2----------4------4--3--6-|
|-0000-4-0000-2-00000000-4-0000-4--3--6-|

Guitars 1 & 2 (Riff ending)
|--------------------------------------------------|
|--------------------------------------------------|
|--------------------------------------------------|
|------4------2----------4------4--3--6----6--5--8-|
|------4------2----------4------4--3--6----6--5--8-|
|-0000-4-0000-2-00000000-4-0000-4--3--6-00-6--5--8-|

1:53 - 2:16
Guitars 1 & 2
|----------------|-----------------|
|----------------|-----------------|
|----------------|-----------------|
|-------7-5------|-------7-5-3-3-5-|
|---0-5----------|---0-5-----------|
|-0--------------|-0---------------|
|                                  |
Guitar 3                           |
|----------------------------------|
|----------------------------------|
|----------------------------------|
|---0----------------0-------------|
|---0----------------0-------------|
|---0----------------0-------------|

Guitars 1 & 2
|----------------|-----------------|
|----------------|-----------------|
|----------------|-----------------|
|-------7-5------|---------5---3---|
|---0-5----------|---------5---3---|
|-0--------------|---------5---3---|
|                                  |
Guitar 3                           |
|----------------------------------|
|----------------------------------|
|----------------------------------|
|---0----------------------5---3---|
|---0----------------------5---3---|
|---0----------------------5---3---|

Guitars 1 & 2
|----------------|-----------------|
|----------------|-----------------|
|----------------|-----------------|
|-------7-5------|-------7-5-3-3-5-|
|---0-5----------|---0-5-----------|
|-0--------------|-0---------------|
|                                  |
Guitar 3                           |
|----------------------------------|
|----------------------------------|
|----------------------------------|
|---0----------------0-------------|
|---0----------------0-------------|
|---0----------------0-------------|

Guitars 1 & 2
|----------------|-----------------|
|----------------|-----------------|
|----------------|-----------------|
|-------7-5------|------8--3---1---|
|---0-5----------|------8--3---1---|
|-0--------------|------8--3---1---|
|                                  |
Guitar 3                           |
|----------------------------------|
|----------------------------------|
|----------------------------------|
|---0-------------------8--3---1---|
|---0-------------------8--3---1---|
|---0-------------------8--3---1---|

2:16 - 2:38
Guitars 1 & 2 (Play riff 4 times)
|---------------------------------------|
|---------------------------------------|
|---------------------------------------|
|------4------2----------4------4--3--6-|
|------4------2----------4------4--3--6-|
|-0000-4-0000-2-00000000-4-0000-4--3--6-|

2:38 - 3:16 (Haven't figured out yet, It's fast and pretty heavily 

palm-muted. I can't really hear what's going on. Any help is 

appreciated.)

3:16 - 3:39
Guitar 1
|---------------------------------|
|---------------------------------|
|---------------------------------|
|---------------------------------|
|---0-5-8---0-8-7---0-7-5---7-7-8-|
|-0-------0-------0-------0-------|

Guitar 2
|---------------------------------|
|---------------------------------|
|---------------------------------|
|---------------------------------|
|---0-5-8---0-8-7---0-7-5---8-8-7-|
|-0-------0-------0-------0-------|

Guitar 1
|---------------------------------|
|---------------------------------|
|---------------------------------|
|-------7-----7-5-----5-3---5-5-7-|
|---0-5-8---0-8-7---0-7-5---7-7-8-|
|-0-------0-------0-------0-------|

Guitar 2
|---------------------------------|
|---------------------------------|
|---------------------------------|
|-------7-----7-5-----5-3---7-7-5-|
|---0-5-8---0-8-7---0-7-5---8-8-7-|
|-0-------0-------0-------0-------|

3:39 - 4:02
Guitar 1
|---------------------------------|
|---------------------------------|
|---------------------------------|
|---------------------------------|
|---0-5-8---0-8-7---0-7-5---7-7-8-|
|-0-------0-------0-------0-------|
|                                 |
Guitar 3                          |
|---------------------------------|
|---------------------------------|
|---------------------------------|
|-0-------------------------------|
|-0-------------------------------|
|-0-------------------------------|

Guitar 2
|---------------------------------|
|---------------------------------|
|---------------------------------|
|---------------------------------|
|---0-5-8---0-8-7---0-7-5---8-8-7-|
|-0-------0-------0-------0-------|

Guitar 1
|---------------------------------|
|---------------------------------|
|---------------------------------|
|-------7-----7-5-----5-3---5-5-7-|
|---0-5-8---0-8-7---0-7-5---7-7-8-|
|-0-------0-------0-------0-------|
|                                 |
Guitar 3                          |
|---------------------------------|
|---------------------------------|
|---------------------------------|
|-5-------------------------------|
|-5-------------------------------|
|-5-------------------------------|

Guitar 2
|---------------------------------|
|---------------------------------|
|---------------------------------|
|-------7-----7-5-----5-3---7-7-5-|
|---0-5-8---0-8-7---0-7-5---8-8-7-|
|-0-------0-------0-------0-------|

Guitar 1
|---------------------------------|
|---------------------------------|
|---------------------------------|
|-------7-----7-5-----5-3---5-5-7-|
|---0-5-8---0-8-7---0-7-5---7-7-8-|
|-0-------0-------0-------0-------|
|                                 |
Guitar 3                          |
|---------------------------------|
|---------------------------------|
|---------------------------------|
|-8-------------------------------|
|-8-------------------------------|
|-8-------------------------------|

4:02 - 4:24
Guitars 1 & 2
|----------------|-----------------|
|----------------|-----------------|
|----------------|-----------------|
|-------7-5------|-------7-5-3-3-5-|
|---0-5----------|---0-5-----------|
|-0--------------|-0---------------|
|                                  |
Guitar 3                          /
|----------------|----------------|
|----------------|----------------|
|----------------|----------------|
|----------------|----------------|
|----------------|----------------|
|0000000000000000|0000000000000000|

Guitars 1 & 2
|----------------|-----------------|
|----------------|-----------------|
|----------------|-----------------|
|-------7-5------|---------5---3---|
|---0-5----------|---------5---3---|
|-0--------------|---------5---3---|
|                                  |
Guitar 3                           |
|----------------|-----------------|
|----------------|-----------------|
|----------------|-----------------|
|----------------|---------5---3---|
|----------------|---------5---3---|
|0000000000000000|0000000003---3---|

Guitars 1 & 2
|----------------|-----------------|
|----------------|-----------------|
|----------------|-----------------|
|-------7-5------|-------7-5-3-3-5-|
|---0-5----------|---0-5-----------|
|-0--------------|-0---------------|
|                                  |
Guitar 3                          /
|----------------|----------------|
|----------------|----------------|
|----------------|----------------|
|----------------|----------------|
|----------------|----------------|
|0000000000000000|0000000000000000|

Guitars 1 & 2
|----------------|-----------------|
|----------------|-----------------|
|----------------|-----------------|
|-------7-5------|------8--3---1---|
|---0-5----------|------8--3---1---|
|-0--------------|------8--3---1---|
|                                  |
Guitar 3                           |
|----------------|-----------------|
|----------------|-----------------|
|----------------|-----------------|
|----------------|------8--3---1---|
|----------------|------8--3---1---|
|0000000000000000|0000008--3---1---|

4:24 - End
|----------------------------------|
|----------------------------------|
|----------------------------------|
|-0--------------------------------|
|-0--------------------------------|
|-0--------------------------------|





Comments


Popular Heaven Shall Burn tabs & chords
Counterweight Bass Tabs
Profane Believers Bass Tabs
Architects Of The Apocalypse Tabs
Armia Tabs
Atonement 1 Tabs
Endzeit 1 Tabs
Not My God Tabs
Numbing The Pain Tabs
Only Truth Tabs
Quest For Resistance Tabs


Song lyrics



↑ Back to top | Tablatures and chords are parodies/interpretations of the original songs. You may use it for private study, scholarship, research or language learning purposes only
© 2014 AZChords.com Contact us | Privacy policy | DMCA | Add/correct tabs | Request tabs | Top 50 tabs