» » »

Friend Like That Tabs (ver.2)

Artists:  A B C D E F G H I J K L M N O P Q R S T U V W X Y Z # 

Friend Like That Tabs (ver.2)

Hawk Nelson
Rating:
4/5 (10 votes)

Hard to play? Try these video lessons and learn fast.
                Hawk Nelson
Friend Like That

I like to play it in drop D but you don't have to.
Intro:
e|--------------------------------------|
B|--------------------------------------|
G|--------------------------------------|
D|-77-3-33------------------------------|
A|-77-3-33------------------------------|
D|-77-3-33-5-7-5-10(x2)-----------------|

e|--------------------------------------|
B|--------------------------------------|
G|-12-12-12-9-9-9-10-10-10-7-7-7--------|
D|--------------------------------------|
A|--------------------------------------|
D|--------------------------------------|
It continues w/ something else but i couldn't get it so i just repeat it.

Verse 1:
Only drums really play.

Pre Chorus:
e|--------------------------------------|
B|--------------------------------------|
G|-55-----------------------------------|
D|-55-55-77-33--------------------------|
A|-33-55-77-33--------------------------|
D|----55-77-33(x4)----------------------|

Chorus:
e|--------------------------------------|
B|--------------------------------------|
G|-55-----------------------------------|
D|-55-55-77-33--------------------------|
A|-33-55-77-33--------------------------|
D|----55-77-33(x4)----------------------|

After Chorus:
e|--------------------------------------|
B|--------------------------------------|
G|-12-12-12-9-9-9-10-10-10-7-7-7(x2)----|
D|--------------------------------------|
A|--------------------------------------|
D|--------------------------------------|

Verse 2:
Drums do their thing again.

Repeat Pre Chorus

Repeat Chorus

Guitar does weird delay wah wah thing so it was difficult to figure out.

Repeat Chorus

End

Definatly not perfect but most of it fits and doesnt sound half bad when played with 
Hopefully someone can build of this and get more.
            
Hard to play? Try these video lessons and learn fast. | Correct




comments powered by Disqus
↑ Back to top | Tablatures and chords are parodies/interpretations of the original songs. You may use it for private study, scholarship, research or language learning purposes only