» » »

Friend Like That Tabs (ver.1)

Artists:  A B C D E F G H I J K L M N O P Q R S T U V W X Y Z # 

Friend Like That Tabs (ver.1)

Hawk Nelson
Rating:
3/5 (2 votes)

Hard to play? Try these video lessons and learn fast.
                Intro: 0:00
e|--------------------------------------|
B|--------------------------------------|
G|---------------5-5--------------------|
D|-777-3-3-------5-5--------------------|
A|-777-3-3-------3-3--------------------|
E|-555-1-1-3-5-3------------------------|

e|--------------------------------------|
B|--------------------------------------|
G|-------------5-5----------------------|
D|-777-3-3-5-5-5-5----------------------|
A|-777-3-3-5-5-3-3----------------------|
E|-555-1-1-3-3--------------------------|

Guitar Break: 0:06
e|--------------------------------------|
B|--------------------------------------|
G|-12-12-12-9-9-9-10-10-10-7-7-7-9------|
D|--------------------------------------|
A|--------------------------------------|
E|--------------------------------------|

e|--------------------------------------|
B|--------------------------------------|
G|-12-12-12-9-9-9-9-10-10-9-9-----------|
D|--------------------------------------|
A|--------------------------------------|
E|--------------------------------------|

Verse 1: 0:11 My life is simple and...
e|--------------------------------------|
B|--------------------------------------|
G|--------------------------------------|
D|--------------------10----------------|
A|-7--8--10------8-10-------------------|
E|----------8-10------------------------|

e|--------------------------------------|
B|--------------------------------------|
G|--------------------------------------|
D|------------------------10------------|
A|-7-8-------8-10------10---------------|
E|------8-10------8-10------------------|

(2x)

Pre Chorus: 0:23 I, I need, somebody...
e|--------------------------------------|
B|--------------------------------------|
G|-55-----------55----------------------|
D|-55-55-77-33-----55-77-33-------------|
A|-33-55-77-33-----55-77-33-------------|
E|----33-55-11-----33-55-11-------------|

(4x)

e|--------------------------------------|
B|--------------------------------------|
G|--------------------------------------|
D|-55555555-33333333--------------------|
A|-55555555-33333333--------------------|
E|-33333333-11111111--------------------|


Chorus: 0:38 Hey lemme hear you say...
e|--------------------------------------|
B|--------------------------------------|
G|-55-----------55----------------------|
D|-55-55-77-33-----55-77-33-------------|
A|-33-55-77-33-----55-77-33-------------|
E|----33-55-11-----33-55-11-------------|

(4x)

e|--------------------------------------|
B|--------------------------------------|
G|--------------------------------------|
D|-55555555-33333333--------------------|
A|-55555555-33333333--------------------|
E|-33333333-11111111--------------------|

Guitar Break: 0:52

Verse 2: 0:58 I once was little and...

Pre Chorus: 1:10 I, I need, somebody...

Chorus: 1:25 Hey lemme hear you say...

Bridge: 1:39
e|--------------------------------------|
B|--------------------------------------|
G|--------------------------------------|
D|-3-3-3-3-3-3-3-3-3-3-3-3-3-3-3-3------|
A|-3-3-3-3-3-3-3-3-3-3-3-3-3-3-3-3------|
E|-1-1-1-1-1-1-1-1-1-1-1-1-1-1-1-1------|

Does anyone out there feel alone...
e|--------------------------------------|
B|--------------------------------------|
G|---------3-3-3-3-5-5-5-5--------------|
D|-3-3-3-3-3-3-3-3-5-5-5-5-3-3-3-3------|
A|-3-3-3-3-1-1-1-1-3-3-3-3-3-3-3-3------|
E|-1-1-1-1-----------------1-1-1-1------|

e|--------------------------------------|
B|--------------------------------------|
G|---------3-3-3-3----------------------|
D|-3-3-3-3-3-3-3-3-5-5-5-5-3-3-3-3------|
A|-3-3-3-3-1-1-1-1-5-5-5-5-3-3-3-3------|
E|-1-1-1-1---------3-3-3-3-1-1-1-1------|

e|--------------------------------------|
B|--------------------------------------|
G|---------3-3-3-3-5-5-5-5-5-5-5-5------|
D|-3-3-3-3-3-3-3-3-5-5-5-5-5-5-5-5------|
A|-3-3-3-3-1-1-1-1-3-3-3-3-3-3-3-3------|
E|-1-1-1-1------------------------------|

Chorus: 2:03 Hey lemme hear you say...
e|--------------------------------------|
B|--------------------------------------|
G|-55-----------55----------------------|
D|-55-55-77-33-----55-77-33-------------|
A|-33-55-77-33-----55-77-33-------------|
E|----33-55-11-----33-55-11-------------|

(8x)

e|--------------------------------------|
B|--------------------------------------|
G|--------------------------------------|
D|-55555555-33333333--------------------|
A|-55555555-33333333--------------------|
E|-33333333-11111111--------------------|

Pre Chorus: 2:30 I, I need, somebody...
e|--------------------------------------|
B|--------------------------------------|
G|-55-----------55----------------------|
D|-55-55-77-33-----55-77-33-------------|
A|-33-55-77-33-----55-77-33-------------|
E|----33-55-11-----33-55-11-------------|

(4x)

e|--------------------------------------|
B|--------------------------------------|
G|-------------------5------------------|
D|-55555555-33333333-5------------------|
A|-55555555-33333333-3------------------|
E|-33333333-11111111--------------------|

If you think any part of this tab needs to be changed, I can be reached at 
Also send me the solo part near the end if you have the ear for it. Enjoy!
            
Hard to play? Try these video lessons and learn fast. | Correct




comments powered by Disqus
↑ Back to top | Tablatures and chords are parodies/interpretations of the original songs. You may use it for private study, scholarship, research or language learning purposes only