» » »

Hawk Nelson, Fourteen Tabs (ver.3)

Artists:  A B C D E F G H I J K L M N O P Q R S T U V W X Y Z # 

Fourteen Tabs (ver.3)

Hawk Nelson Tabs
Rating:
5/5 (1 vote)
Fourteen lessons Tabs too difficult? Try these video lessons and learn fast
                This is my first tab.  I am pretty sure it is right, but probably not perfect.  It is 
the guitar part at the end.  The beginning is piano.

Drop-D Tuning

Guitar 1
E|------------------------------------------------|
B|------------------------------------------------|
G|-16-16-16-16-16h18-20-16-12-12-12-12-20-18-16-12|
D|------------------------------------------------|
A|------------------------------------------------|
D|------------------------------------------------|

E|------------------------------------|
B|------------------------------------|
G|-9-9-9-9-9h11-13-9-7-7-7-7-7-7-9-12-| x4
D|------------------------------------|
A|------------------------------------|
D|------------------------------------|

2nd Guitar comes in...

Guitar 1
E|------------------------------------------------|
B|------------------------------------------------|
G|-16-16-16-16-16h18-20-16-12-12-12-12-20-18-16-12|
D|------------------------------------------------|
A|------------------------------------------------|
D|------------------------------------------------|

E|------------------------------------|
B|------------------------------------|
G|-9-9-9-9-9h11-13-9-7-7-7-7-7-7-9-12-| x2
D|------------------------------------|
A|------------------------------------|
D|------------------------------------|

Guitar 2
E|-----------------------------------------------------------------|
B|-----------------------------------------------------------------|
G|-----------------------------------------------------------------| x2
D|-9-9-9-9-9-9-9-9-7-7-7-7-7-7-7-7-5-5-5-5-5-5-5-5-3-3-3-3-3-3-3-3-|
A|-9-9-9-9-9-9-9-9-7-7-7-7-7-7-7-7-5-5-5-5-5-5-5-5-3-3-3-3-3-3-3-3-|
D|-9-9-9-9-9-9-9-9-7-7-7-7-7-7-7-7-5-5-5-5-5-5-5-5-3-3-3-3-3-3-3-3-|

Guitar 2
E|-----------------------------------------------------------------|
B|-----------------------------------------------------------------|
G|-9-9-9-9-9-9-9-9-7-7-7-7-7-7-7-7-5-5-5-5-5-5-5-5-----------------| x4
D|-9-9-9-9-9-9-9-9-7-7-7-7-7-7-7-7-5-5-5-5-5-5-5-5-7-7-7-7-9-9-9-9-|
A|-7-7-7-7-7-7-7-7-5-5-5-5-5-5-5-5-3-3-3-3-3-3-3-3-7-7-7-7-9-9-9-9-|
D|-------------------------------------------------7-7-7-7-9-9-9-9-|

That's it.  Please comment if there's any mistakes.
            

comments powered by Disqus
↑ Back to top | Hawk Nelson Tabs for Fourteen. Lyrics for acoustic guitar and electric guitar. Tablatures and chords are parodies/interpretations of the original songs. You may use it for private study, scholarship, research or language learning purposes only