» » »

Fourteen Tabs (ver.2)

Artists:  A B C D E F G H I J K L M N O P Q R S T U V W X Y Z # 

Fourteen Tabs (ver.2)

Hawk Nelson
Rating:
5/5 (3 votes)

Tabs too difficult? Try these video lessons and learn fast.
                Tuning: Drop D (DAdGBE)

| p  pull-off
| /  slide up
| ^  bend
| ~  let ring

Really powerful song. Most of it is piano, but the guitar does come in starting at 
the second verse. Here's how it goes:

[Verse 2]
E|----------------------------------------|
B|--12p10-8-10-10/12-12~----7^--------5~--|
G|------------------------------7-4-7-----|
d|----------------------------------------|
A|----------------------------------------|
D|----------------------------------------|

[Bridge] I put an extra dash in between every set of eight notes to help give a 
sense of structure to the solo; it has nothing to do with how far apart the notes 
actually are in the song.

E|----------------------------------------------------| \
B|--12-12-12-12-12-13-12-----------------15-13-12-10--| |
G|-----------------------11--11-11-11-11--------------| |
d|----------------------------------------------------| |
A|----------------------------------------------------| |
D|----------------------------------------------------| |
                                                        | x6
E|---------------------------------------------|        |
B|-----------------10-12-----------------------|        |
G|--12-12-12-12-12-------9--9-9-9-9-9-9-11-12--|        |
d|---------------------------------------------|        |
A|---------------------------------------------|        |
D|---------------------------------------------|        /

This comes in after the fourth repeat of the solo
E|---------------------------------------|
B|---------------------------------------|
G|-----------77777777-44444444-55555555--|
d|--55555555-77777777-44444444-55555555--|
A|--55555555-55555555-22222222-33333333--|
D|--55555555-----------------------------|
    /-10s and 12s-\
E|-----------------------------------------------|
B|-----------------------------------------------|
G|--1212121212121212----------44444444-55555555--|
d|--1212121212121212-00000000-44444444-55555555--|
A|--1010101010101010-00000000-22222222-33333333--|
D|-------------------00000000--------------------|

[Last Chorus]                                     End on this
E|------------------------------------------|      E|--------|
B|------------------------------------------|      B|--------|
G|------------55555555----------------------| x3   G|--------|
d|--22222222--55555555--55555555--00000000--|      d|---2~---|
A|--22222222--33333333--55555555--00000000--|      A|---2~---|
D|--22222222------------55555555--00000000--|      D|---2~---|

God bless. :)
            
Tabs too difficult? Try these video lessons and learn fast.


comments powered by Disqus
↑ Back to top | Tablatures and chords are parodies/interpretations of the original songs. You may use it for private study, scholarship, research or language learning purposes only