» » »

Every Little Thing Tabs (ver.2)

Artists:  A B C D E F G H I J K L M N O P Q R S T U V W X Y Z # 

Every Little Thing Tabs (ver.2)

Hawk Nelson
Rating:
0/5 (0 votes)

Hard to play? Try these video lessons and learn fast.
                (Acoustic)
Standard Tuning
Capo 1
/ - Slide

I couldn't find tabs that I liked for this song. So I took the time
to tab it out for myself and make it as clear as possible.
This tablature is based on the acoustic version of Every Little Thing
on the Letters To The President Special Edition CD.

The song is in the key of G#. So I put Capo 1 and play in key of G.
   EADGBe
G  320033
A  x02230
Em 022033
D  xx0233
C  x32033

Intro:
E|--3333--------------3333----------------3333-------------------
B|--3333--------------3333----------------3333-------------------
G|--0000-0---2---0----0000-0---2---4-(0)--0000-0---2---0~--------
D|--0000---0---0--(0)-0000---0---0--------0000---0---0-----------
A|--xxxx--------------xxxx----------------xxxx-------------------
E|--3333--------------3333----------------3333-------------------

Verse 1: (I'm pretty sure there's two guitarists playing here, but 
Guitar 1    you don't have to play the second part)
G   Asus   Em   D x2

Guitar 2
E|---------------------------------------------------------------
B|---------------------------------------------------------------
G|---0---2---0------0---2---4-(0)---0---2---0------0---2---4-(0)-
D|-----0---0--(0)-----0---0-----------0---0--(0)-----0---0-------
A|---------------------------------------------------------------
E|---------------------------------------------------------------

E|---------------------------------------------------------------
B|---------------------------------------------------------------
G|---0---2---0------0---2---4-(0)---0---2---0------0-------------
D|-----0---0--(0)-----0---0-----------0---0----------------------
A|---------------------------------------------------------------
E|---------------------------------------------------------------

Pre-Chorus:
E|---------------------------------------------------------------
B|---------------------------------------------------------------
G|---------------------------------------------------------------
D|---------5-5-5-5---------7777777------------5-5-5-5---------7--
A|-5-5-5-5-3-3-3-3-5-5-5-5-5555555----5-5-5-5-3-3-3-3-5-5-5-5-5--
E|-3-3-3-3---------3-3-3-3------------3-3-3-3---------3-3-3-3----

Chorus:
G   C   G   D x2


E|--3333--------------3333----------------3333---------------3333-------------
B|--3333--------------3333----------------3333---------------3333-------------
G|--0000-0---2---0----0000-0---2---4-(0)--0000-0---2---0-----0000-0---2---4~--
D|--0000---0---0--(0)-0000---0---0--------0000---0---0--(0)--0000---0---0-----
A|--xxxx--------------xxxx----------------xxxx---------------xxxx-------------
E|--3333--------------3333----------------3333---------------3333-------------

Verse 2:
E|---------------------------------------------
B|---------------------------------------------
G|---------------------------------------------  x2
D|---------------------999999999-777777777-----
A|-555555555-777777777-777777777-555555555-----
E|-333333333-555555555-------------------------


REPEAT CHORUS


Bridge:
E|---------------------------------
B|---------------------------------
G|---------------------------------
D|---------7-7-7-7----------5------
A|-5-5-5-5-5-5-5-5-5-5-5-5--3--5---
E|-3-3-3-3---------3-3-3-3-----3---

--------
Solo: NOT RELATIVE TO CAPO. I'm 99.9% sure this is right.
E|------------------------------------------------------------ These notes are NOT relative
B|------------------------------------------------------------ to capo 1.  because higher
G|---15/17-15-13--------13/17-151315-17-15-13-13-131312-13-15- up on the fretboard, the fret
D|--------------13--11---------------------------------------- numbers get confusing.
A|------------------------------------------------------------ 
E|------------------------------------------------------------ Just use the double dots as 12.

E|----------------------------------------------------------
B|----------------------------------------------------------
G|---15/17-15-13--------13/17-151315-17-15-13-131517-19-20~-
D|-13-----------13--11--------------------------------------
A|----------------------------------------------------------
E|----------------------------------------------------------
--------


REPEAT PRE-CHORUS


Chorus: Up-Key to A#
E|----------------------------------------------------------------------
B|----------------------------------------------------------------------
G|-----------77777777----------99999999------------77777777----------9~-
D|--77777777-77777777-77777777-99999999---77777777-77777777-77777777-9~-
A|--77777777-55555555-77777777-77777777---77777777-55555555-77777777-7~-
E|--55555555----------55555555------------55555555----------55555555----

End Bridge:
E|-----------------------------------------
B|-----------------------------------------
G|-----------9-9-9-9-----------7-----9-----
D|--7-7-7-7--9-9-9-9--7-7-7-7--7--7--9-7~--
A|--7-7-7-7--7-7-7-7--7-7-7-7--5--7--7-7~--
E|--5-5-5-5-----------5-5-5-5-----5----5~--


So that's it. It took me awhile to get it all together.
This is how I play it whenever I pick up an electric or acoustic.
I hope it wasn't too confusing. Tell me what you think. Enjoy.

Play Hard,
Nyght.
            
Hard to play? Try these video lessons and learn fast. | Correct




comments powered by Disqus
↑ Back to top | Tablatures and chords are parodies/interpretations of the original songs. You may use it for private study, scholarship, research or language learning purposes only