» » »

Hawk Nelson, Every Little Thing Tabs (ver.1)

Artists:  A B C D E F G H I J K L M N O P Q R S T U V W X Y Z # 

Every Little Thing Tabs (ver.1)

Hawk Nelson Tabs
Rating:
4/5 (8 votes)
Hard to play? Try these video lessons and learn fast.
                -----------------------------------------------------------------------------
-----------------------------------------------------------------------------
Hey everyone!  I finally finished this tab.......it took forever.  I think I
have the whole song correct.  It sounds right at least.  Hope you enjoy and give
some input if you want.  Thanks!

copyright 2004
tooth and nail records


/ - slide

Standard Tuning

Intro 1 (Medium Distortion)

E/-------------------------------------------------------|
B/-------------------------------------------------------|
G/-------------------------------------------------------|
D/-----13--15--13----13--15--1713----13--15--13-13-15----|
A/---131113131311--13111313131511--131113131311-11-13----|
E/---11--11--11----11--11--11------11--11--11------------|

Verse 1 (Medium Distortion)

E/------------------------------------------------------------------------------|
B/------------------------------------------------------------------------------|
G/------------------------------------------------------------------------------|
D/-------------------------------------11111-88---------------------------------|
A/-66666-66--6-88888-88--8-33333-33--3-11111-66-66666-66--66-88888-88--88-33333-|
E/-44444-44--4-66666-66--6-11111-11--1----------44444-44--44-66666-66--66-11111-|

Verse 1 (Continued)(Medium Distortion)

E/---------------|
B/---------------|
G/---------------|
D/-------1---8-8-|
A/33--33-1---6-6-|
E/11--11---------|

Prechorus 1 (Medium Distortion)

E/-----------------------------------------------------------------|
B/-----------------------------------------------------------------|
G/-----------------------------------------------------------------| Choke all
D/---------6-6-6-6---------11111111---------6-6-6-6---------111111-| except 1
A/-6-6-6-6-4-4-4-4-6-6-6-6-11111111-6-6-6-6-4-4-4-4-6-6-6-6-111111-|        1
E/-4-4-4-4---------4-4-4-4----------4-4-4-4---------4-4-4-4--------|

Chorus 1 (Medium Distortion)

E/-----------------------------------------------------|
B/-----------------------------------------------------|
G/-----------------------------------------------------|
D/--------6-6666--------8-8888--------6-6666--------1--|
A/-6-6666-4-4444-6-6666-6-6666-6-6666-4-4444-6-6666-1--|
E/-4-4444--------4-4444--------4-4444--------4-4444----|

Before Verse 2 (Medium Distortion)

E/--------------------------------------------------------------|
B/--------------------------------------------------------------|
G/--------------------------------------------------------------|
D/-----13--15--13----13--15--1713----13--15--13----13--15--1713-|
A/---131113131311--13111313131511--131113131311--13111313131511-|
E/---11--11--11----11--11--11------11--11--11----11--11--11-----|

Verse 2 (Medium Distortion)

E/----------------------------------------------|
B/----------------------------------------------| Repeat 2 times.
G/----------------------------------------------| Palm Mute.
D/-------------------------------111111111-1-1--| Listen to song for the beat of
A/-666666666-888888888-333333333-111111111-1-1--| verse.
E/-444444444-666666666-111111111----------------|

Chorus 2 (Medium Distortion)

E/-----------------------------------------------------|
B/-----------------------------------------------------|
G/-----------------------------------------------------|
D/--------6-6666--------8-8888--------6-6666--------1--|
A/-6-6666-4-4444-6-6666-6-6666-6-6666-4-4444-6-6666-1--|
E/-4-4444--------4-4444--------4-4444--------4-4444----|

Bridge 1 (Medium Distortion)

E/---------------------------------|
B/---------------------------------|
G/---------------------------------|
D/---------8-8-8-8----------6---66-|
A/-6-6-6-6-6-6-6-6-6-6-6-6--4-6-44-|
E/-4-4-4-4---------4-4-4-4----4----|

Solo (Medium Distortion)

E/------------------------------------------------------------------------------|
B/------------------------------------------------------------------------------|
G/-17-15-13-------17-15-13-15-17-15-13-131313/12-13-15-13-17-15-13-----------17-|
D/----------13-11--------------------------------------------------1313-1111----|
A/------------------------------------------------------------------------------|
E/------------------------------------------------------------------------------|

Solo (Continued)(Medium Distortion)

E/------------------------------------|
B/------------------------------------|
G/-15-13-15-17-15-13-1313-15b-17b-19--|b
D/------------------------------------|
A/------------------------------------|
E/------------------------------------|

Pre-Chorus 3(Medium Distortion)

E/----------------------------------|
B/----------------------------------|  Palm Mute all.  On 1 slowly work out of
G/----------------------------------|                     1  palm mute.
D/---------6-6-6-6---------11111111-|
A/-6-6-6-6-4-4-4-4-6-6-6-6-11111111-|
E/-4-4-4-4---------4-4-4-4----------|

Pre-Chorus 3 (Continued) (Medium Distortion)

E/--------------------------------|
B/--------------------------------|
G/--------------------------------|
D/--------666666---------11111111-|
A/-666666-444444-6666666-11111111-|
E/-444444--------4444444----------|

Chorus 3 (Higher Key) (Medium Distortion)

E/------------------------------------------------------------| On the A and the D string the 8 and 10 are
B/------------------------------------------------------------|  played together it just looks weird.
G/------------------------------------------------------------|
D/--------8-8888----------10-10101010---------8-8888--------3-|
A/-8-8888-6-6666---88-8-8-8 -8 8 8 8 --8-8888-6-6666-8-8888-3-|
E/-6-6666----------66-6-6--------------6-6666--------6-6666---|

Ending (Medium Distortion)

E/------------------------------------------|
B/------------------------------------------|
G/---------------------------------------14-|   The ending is pretty tough...if
D/---------10-10-10-10----------8--------12-|   its not it..its really close.
A/-8-8-8-8-8 -8 -8 -8 -8-8-8-8--6--10-10----|
E/-6-6-6-6-------------6-6-6-6-----8 -8 ----|

Thanks everyone.  I hope you enjoy this!  Finally a Every Little Thing Tab!
Please Listen to the CD for the beat and tempo because im pretty sure that the
chords are right.  Thanks again!

God Bless,
Ascension
            

comments powered by Disqus
↑ Back to top | Hawk Nelson Tabs for Every Little Thing. Lyrics for acoustic guitar and electric guitar. Tablatures and chords are parodies/interpretations of the original songs. You may use it for private study, scholarship, research or language learning purposes only