» » »

This Is Now Bass tabs (ver.1)

Artists:  A B C D E F G H I J K L M N O P Q R S T U V W X Y Z # 

This Is Now Bass tabs (ver.1)

Hatebreed
Rating:
0/5 (0 votes)

Tabs too difficult? Try these video lessons and learn fast.
                This is for 5 string players who dont feel like down tuning to c on the 4th string and 
like to use the 5th string, i personaly like to play it in adgcf...

intro
f--------------------------------------------|
c--------------------------------------------|
g--------------------------------------------|
d--------------------------------------------|
a-3-3-3--3-3-3-------------------------------|

chorus
f---------------------------------------------|
c---------------------------------------------|
g---------------------------------------------|
d---------------------------------------------|
a-6-3-3--6-7-6--3-3--4-6-4-3--6-7-6--333333---|

verison 1

verse
f---------------------------------------------|
c---------------------------------------------|
g----6~-7~-8~---------------------------------|
d-3~------------------------------------------|
a---------------------------------------------|

version 2  pick which 1 u liek the best

f---------------------------------------------|
c---------------------------------------------|
g---------------------------------------------|
d----11~-12~-13~------------------------------|
a-8~------------------------------------------|


I give 2 versions of breakdown bc some like 1 string i liek the sound of using a and d

breakdown/bridge    version 1
f---------------------------------------------|
c---------------------------------------------|
g---------------------------------------------|
d-5-4---4-------------------------------------|
a-----6----33333333333333333333333333---------|

f---------------------------------------------|
c---------------------------------------------|
g---------------------------------------------|
d---------------------------------------------|
a-10-9-6-9-3333333333333333333333333----------|
            
Tabs too difficult? Try these video lessons and learn fast.




comments powered by Disqus
↑ Back to top | Tablatures and chords are parodies/interpretations of the original songs. You may use it for private study, scholarship, research or language learning purposes only