» » »

This Is Now Tabs

Artists:  A B C D E F G H I J K L M N O P Q R S T U V W X Y Z # 

This Is Now Tabs

(ver. 1)
Hatebreed Tabs
 Rating:
4/5 (4 votes)
    This Is Now lessons Tabs too difficult? Try these video lessons and learn fast
                Hatebreed
This is Now
Tune down 2 whole steps (Bb, F, Bb, Eb, G, C)
The Rise Of Brutality
TOOLBAND462

Palm Mute: *
Let Ring: ~


INTRO / CHORUS
|---------------------------------------------------------------------------|
|---------------------------------------------------------------------------|
|---------------------------------------------------------------------------|
|---3--2--0--6--7---3--2--0--5--6---3--2--0--6--7---3---0-0-0-0-0-0---------|
|---3--2--0--6--7---3--2--0--5--6---3--2--0--6--7---3---0-0-0-0-0-0---------|
|---3--2--0--6--7---3--2--0--5--6---3--2--0--6--7---3---0-0-0-0-0-0---------|
                                                        ***********
VERSE
|---------------------------------------------------------------------------|
|---------------------------------------------------------------------------|
|------------9-----8----5---------------------------------------------------|
|---2~-------x-----x----x---------------------------------------------------|
|---2~-------7-----6----3---------------------------------------------------|
|---2~----------------------------------------------------------------------|

BRIDGE
|---------------------------------------------------------------------------|
|---------------------------------------------------------------------------|
|---------------------------------------------------------------------------|
|--2-0-0---2---0-0-0-0-2-0-2-----------------10--9--5--7--------------------|
|--2-0-0---2---0-0-0-0-2-0-2-----------------10--9--5--7--------------------|
|--2-0-0---2---0-0-0-0-2-0-2-----------------10--9--5--7--------------------|     
     ***       *******                   
OUTRO
|---------------------------------------------------------------------------|
|---------------------------------------------------------------------------|
|---------------------------------------------------------------------------|
|---3--2--0--6--7---3--2--0--5--6---3--2--0--6--7---3---0-0-0---0-0-0-------|
|---3--2--0--6--7---3--2--0--5--6---3--2--0--6--7---3---0-0-0---0-0-0-------|
|---3--2--0--6--7---3--2--0--5--6---3--2--0--6--7---3---0-0-0---0-0-0-------|
                                                        *****   *****
            
Submit corrections

↑ Back to top | Hatebreed Tabs for This Is Now. Lyrics for acoustic guitar and electric guitar. Tablatures and chords are parodies/interpretations of the original songs. You may use it for private study, scholarship, research or language learning purposes only