» » »

This Is Now Tabs (ver.2)

Artists:  A B C D E F G H I J K L M N O P Q R S T U V W X Y Z # 

This Is Now Tabs (ver.2)

Hatebreed
Rating:
0/5 (0 votes)

Hard to play? Try these video lessons and learn fast.
                Hatebreed - This Is Now 
Tuning - C A C F A D (drop D, one step down) 



INTRO 
F---------------------------------------------|
C---------1-0-0--343-0-0--131-0-0--343-0000000|
A---------1-0-0--343-0-0--131-0-0--343-0000000|
C---------1-0-0--343-0-0--131-0-0--343-0000000| 
  PM        *        *        *        *******

THEN AT THE END OF THE RIFF THE 2ND TIME:

C -000-000
A -000-000
C -000-000
   *** ***              EASY.

THEN JUST REPEAT THE INTRO  4X

VERSE

F------------7--6--3--|
C---------0--7--6--3--|
A---------0--5--4--1--|
C---------0-----------|                 4X

CHORUS is the SAME AS THE INTRO. DO IT 4X.

BRIDGE:
F---------------------------------------------------7--6--3--77|
C------------0-00-0-00000-0-0-00-00-0-00000-0-0-00--7--6--3--77|
A------------0-00-0-00000-0-0-00-00-0-00000-0-0-00--5--4--1--55|
C------------0-00-0-00000-0-0-00-00-0-00000-0-0-00-------------                    PM             **   *****   *    **   *****   *
                                                                                  	   

THAT SHOULD BE ENOUGH FOR YOU. JUST STICK IN THE RIFFS THAT ARE HERE WHEN THEY ARE REPEATED.
            
Hard to play? Try these video lessons and learn fast. | Correct




comments powered by Disqus
↑ Back to top | Tablatures and chords are parodies/interpretations of the original songs. You may use it for private study, scholarship, research or language learning purposes only