» » »

Hatebreed, This Is Now Tabs (ver.3)

Artists:  A B C D E F G H I J K L M N O P Q R S T U V W X Y Z # 

This Is Now Tabs (ver.3)

Hatebreed Tabs
Rating:
0/5 (0 votes)
This Is Now lessons Tabs too difficult? Try these video lessons and learn fast
                Hatebreed
Rise Of Brutality
This Is Now


Notation:
  .  - palm mute                ~  - vibrato
  \  - slide down               b  - bend
  /  - slide up                    f  - full
  h  - hammer on                   h  - half
  p  - pull off                    r  - release
  <> - artificial harmonic      () - let ring


  Tuning:  Drop C (CGCFAD)


    RIFF A                                                                          |-----------------------------------------------------------------|
  |-----------------------------------------------------------------|
  |-----------------------------------------------------------------|
  |----3---0--3-4-3---0---2-3-2---0---3-4-3-------------------------|
  |----3-0-0--3-4-3-0-0---2-3-2-0-0---3-4-3--------0-0-0-0-0-0-0-0--|
  |----3-0-0--3-4-3-0-0---2-3-2-0-0---3-4-3--------0-0-0-0-0-0-0-0--|
         .          .           .                  . . . . . . . .              
    RIFF B                                                                          |-----------------------------------------------------------------|
  |-----------------------------------------------------------------|
  |----------------------(11)----------(10)---------(7)-------------|
  |--------(0)-----------(11)----------(10)---------(7)-------------|
  |--------(0)-----------(9)-----------(8)----------(5)-------------|
  |--------(0)------------------------------------------------------|

    RIFF C         Listen to the CD to get the proper rhythm                        |-----------------------------------------------------------------|
  |-----------------------------------------------------------------|
  |-----------------------------------------------------------------|
  |-------------0----0-------0-------0-----0------0-----------------|
  |-------------0----0-------0-------0-----0------0-----------------|
  |-------------0-00-0-00000-0-00000-0-00--0-0000-0-----------------|
                  ..   .....   .....   ..    ....
    FILL  
  |-----------------------------------------------------------------|
  |-----------------------------------------------------------------|
  |-----------------------------------------------------------------|
  |--------------------------7--6---3--6----------------------------|
  |--------------------------7--6---3--6----------------------------|
  |--------------------------7--6---3--6----------------------------|
            

comments powered by Disqus
↑ Back to top | Hatebreed Tabs for This Is Now. Lyrics for acoustic guitar and electric guitar. Tablatures and chords are parodies/interpretations of the original songs. You may use it for private study, scholarship, research or language learning purposes only