» » »

We Don't Celebrate Sundays Tabs (ver.3)

Artists:  A B C D E F G H I J K L M N O P Q R S T U V W X Y Z # 

We Don't Celebrate Sundays Tabs (ver.3)

Hardcore Superstar
Rating:
0/5 (0 votes)

Hard to play? Try these video lessons and learn fast.
                
Not sure it's correct.. :/ but it sounds like it.


Intro:

D#|------------------------------------------------------||(x2)
A#|------------------------------------------------------||
F#|--------------4-4-4--------------------4-4-4----------||
C#|--6-6-6-6--4--2-2-2--4-4---4-4-4-4--2--2-2-2--4-4-----||
G#|--4-4-4-4--2---------2-2---2-2-2-2--0---------2-2-----||
D#|------------------------------------------------------||


D#|------------------------------------------------------||(x2)
A#|------------------------------------------------------||
F#|--------------4-4-4--------------------4--------------||
C#|--6-6-6-6--4--2-2-2--4-4---4-4-4-4--2--2--4-----------||
G#|--4-4-4-4--2---------2-2---2-2-2-2--0-----2-----------||
D#|------------------------------------------------------||


Vers:


D#||------------------------------------------------------|
A#||------------------------------------------------------|
F#||------------------------------------------------------|
C#||--6-6-6-6-6-6-6-6-2-2-2-2-2-2-2-2-4-4-4-4-4-4-4-4-----|
G#||--4-4-4-4-4-4-4-4-0-0-0-0-0-0-0-0-2-2-2-2-2-2-2-2-----|
D#||------------------------------------------------------|


D#|------------------------------------------------------||(x3)
A#|------------------------------------------------------||
F#|------------------------------------------------------||
C#|--4-4-4-4-4-4-4-4-------------------------------------||
G#|--2-2-2-2-2-2-2-2-------------------------------------||
D#|------------------------------------------------------||


D#||----------------------------------------------------------|
A#||----------------------------------------------------------|
F#||----------------------------------------------------------|
C#||--6-6-6-6-6-6-6-6-2-2-2-2-2-2-2-2--9--8--6--4--11--10--8--|
G#||--4-4-4-4-4-4-4-4-0-0-0-0-0-0-0-0--7--6--4--2--9---8---6--|
D#||----------------------------------------------------------|


Chorus:


D#|--------------------------||-----------------------------|
A#|--------------------------||-----------------------------|
F#|--------------4-4-4-------||--------------4-4-4----------|
C#|--6-6-6-6--4--2-2-2--4-4--||--6-6-6-6--4--2-2-2--4-4-----|
G#|--4-4-4-4--2---------2-2--||--4-4-4-4--2---------2-2-----|
D#|--------------------------||-----------------------------|


D#|------------------------------------------------------||(x4)
A#|------------------------------------------------------||
F#|-----------------4------------------------------------||
C#|-----4-4-4-4--2--2--4---------------------------------||
G#|-----2-2-2-2--0-----2---------------------------------||
D#|------------------------------------------------------||


Vers:


D#||------------------------------------------------------|
A#||------------------------------------------------------|
F#||------------------------------------------------------|
C#||--6-6-6-6-6-6-6-6-2-2-2-2-2-2-2-2-4-4-4-4-4-4-4-4-----|
G#||--4-4-4-4-4-4-4-4-0-0-0-0-0-0-0-0-2-2-2-2-2-2-2-2-----|
D#||------------------------------------------------------|


D#|------------------------------------------------------||(x3)
A#|------------------------------------------------------||
F#|------------------------------------------------------||
C#|--4-4-4-4-4-4-4-4-------------------------------------||
G#|--2-2-2-2-2-2-2-2-------------------------------------||
D#|------------------------------------------------------||


D#||----------------------------------------------------------|
A#||----------------------------------------------------------|
F#||----------------------------------------------------------|
C#||--6-6-6-6-6-6-6-6-2-2-2-2-2-2-2-2--9--8--6--4--11--10--8--|
G#||--4-4-4-4-4-4-4-4-0-0-0-0-0-0-0-0--7--6--4--2--9---8---6--|
D#||----------------------------------------------------------|


Chorus:


D#|--------------------------||-----------------------------|
A#|--------------------------||-----------------------------|
F#|--------------4-4-4-------||--------------4-4-4----------|
C#|--6-6-6-6--4--2-2-2--4-4--||--6-6-6-6--4--2-2-2--4-4-----|
G#|--4-4-4-4--2---------2-2--||--4-4-4-4--2---------2-2-----|
D#|--------------------------||-----------------------------|


D#|------------------------------------------------------||(x2)
A#|------------------------------------------------------||
F#|-----------------4------------------------------------||
C#|-----4-4-4-4--2--2--4---------------------------------||
G#|-----2-2-2-2--0-----2---------------------------------||
D#|------------------------------------------------------||


Stick:

                  bend                    bend
D#|------------------------------------------------------||
A#|------------------------------------------------------||
F#|------------------------------------------------------||
C#|------------------------------------------------------||
G#|--4~--4--6--7~---7^---2~---4~--4--6--7~---7^----------||
D#|------------------------------------------------------||


Solo:

Can't find it out ! :S
            
Hard to play? Try these video lessons and learn fast. | Correct




comments powered by Disqus
↑ Back to top | Tablatures and chords are parodies/interpretations of the original songs. You may use it for private study, scholarship, research or language learning purposes only