» » »

Hardcore Superstar, We Don't Celebrate Sundays Bass tabs (ver.2)

Artists:  A B C D E F G H I J K L M N O P Q R S T U V W X Y Z # 

We Don't Celebrate Sundays Bass tabs (ver.2)

Hardcore Superstar Tabs
Rating:
0/5 (0 votes)
We Don't Celebrate Sundays lessons Tabs too difficult? Try these video lessons and learn fast
                    the bass kicks in with the drums on  this song so just  listen to it !
    I very much belive this is accurate so I hope u like it, enjoy!
    and ive taken every part of the song so  just play along with it 
    ITS SIMPLE !
  
INTRO
F#[---------------------------------]
C#[---------------------------------]
G#[------------------------5555-----]X2
D#[777777777777777777777777----5555-]

VERS1
F#[---------------------------------]
C#[---------------------------------]
G#[---------------------------------]X4
D#[77777777333333335555555555555555-]
BRIDGE
F#[---------------]
C#[---------------]
G#[-6-4-----6-4---]
D#[-----7-5---7-5-]

CHORUS
F#[---------------------------------]
C#[---------------------------------]
G#[------------------------5555-----]X2
D#[777777777777777777777777----5555-]

INTRO
F#[---------------------------------]
C#[---------------------------------]
G#[------------------------5555-----]X2
D#[777777777777777777777777----5555-]

VERS2
F#[---------------------------------]
C#[---------------------------------]
G#[---------------------------------]X4
D#[77777777333333335555555555555555-]
BRIDGE
F#[---------------]
C#[---------------]
G#[-6-4-----6-4---]
D#[-----7-5---7-5-]
CHORUS
F#[---------------------------------]
C#[---------------------------------]
G#[------------------------5555-----]X2
D#[777777777777777777777777----5555-]
 BRIDGE INTO SOLO
F#[------------------------]
C#[------------------------]
G#[------------------------]X2
D#[7-7-7-7-3-3-3-3-5-5-5-5-]

 BASS DURING SOLO
F#[---------------------------------]
C#[---------------------------------]
G#[---------------------------------]X2
D#[77777777333333335555555555555555-]

GHORUS
F#[-------------]
C#[-------------]
G#[----5555-----]X1
D#[3333----5555-]
 CHORUS
F#[---------------------------------]
C#[---------------------------------]
G#[------------------------5555-----]X2
D#[777777777777777777777777----5555-] 
VERS/SOLO
F#[---------------------------------]
C#[---------------------------------]
G#[---------------------------------]X6
D#[77777777333333335555555555555555-]
OUTRO
F#[-----------------]
C#[-----------------]
G#[-6-4-----6-4-----]
D#[-----7-5---7-5-3-]

if u got any problems just e-mail me then !
            

comments powered by Disqus
↑ Back to top | Hardcore Superstar Bass for We Don't Celebrate Sundays. Lyrics for acoustic guitar and electric guitar. Tablatures and chords are parodies/interpretations of the original songs. You may use it for private study, scholarship, research or language learning purposes only