» » »

Hardcore Superstar, We Don't Celebrate Sundays Bass tabs (ver.1)

Artists:  A B C D E F G H I J K L M N O P Q R S T U V W X Y Z # 

We Don't Celebrate Sundays Bass tabs (ver.1)

Hardcore Superstar Tabs
 Rating:
4/5 (4 votes)
We Don't Celebrate Sundays lessons Tabs too difficult? Try these video lessons and learn fast
                Guitar Intro

G------------------------------------------|
D-----------------------------1111---------|
A--/15-33333333333333333333333----1111-----|
E------------------------------------------|

G-------------------------------------|
D------------------------1111---------|
A-33333333333333333333333----1111-----|
E-------------------------------------|


Verse X3
G----------------------------------------|
D----------------------------------------|
A-----6----------------------------------|
E-8888-8-44444444-666666666666-4-6-------|


Pre-Chorus
G---------------------------------------------|
D---------------------------------------------|
A-----6------------6--5---------6--5--------3-|
E-8888-8-44444444--------8-66--------8--66----|


Chorus
G-------------------------------------------|
D-----------------------------1111----------|
A--/15-33333333333333333333333----1111------|
E-------------------------------------------|

G-------------------------------------|
D------------------------1111---------|
A-33333333333333333333333----1111-----|   X3
E-------------------------------------|


Verse X3
G----------------------------------------|
D----------------------------------------|
A-----6----------------------------------|
E-8888-8-44444444-666666666666-4-6-------|


Pre-Chorus
G---------------------------------------------|
D---------------------------------------------|
A-----6------------6--5---------6--5--------3-|
E-8888-8-44444444--------8-66--------8--66----|

Chorus
G------------------------------------------|
D-----------------------------1111---------|
A--/15-33333333333333333333333----1111-----|
E------------------------------------------|

G-------------------------------------|
D------------------------1111---------|
A-33333333333333333333333----1111-----|   X3
E-------------------------------------|

Slow Solo (it's the same as the verse, just a little slower)

G---------------------------------------------|
D---------------------------------------------|
A------6--------------------------------------|
E-8--8---8-4--4-44-6-6-666-4-6----------------|


G---------------------------------------------|
D---------------------------------------------|
A------6------------------------/13131313-----|
E-8--8---8-4--4-44-6-6-666666666--------------|

Fast Solo


G----------------------------------|
D----------------------------------|
A-----6----------------------------|
E-8888-8-44444444-666666666666-4-6-|


G-------------------------------------|
D-------------------------------------|
A-----6-------------------/13131313---|
E-8888-8-44444444-66666666------------|

We don't celebrate Sundays anymoree.......

G------------------|
D-----1--1-1-------|
A-3-3-------1--1-1-|
E------------------|

Chorus X2
G-------------------------------------|
D------------------------1111---------|
A-33333333333333333333333----1111-----|
E-------------------------------------|


Then...
G----------------------------------------|
D----------------------------------------|
A-----6----------------------------------|  X4
E-8888-8-44444444-666666666666-4-6-------|

Outro  Solo
G----------------------------------------------------------------------|
D----------------------------------------------------------------------|
A---------11-11-11-11-11-11-11-11-/13-13-13-13-13-13-13-13-13-13-13-13-|
E-88888888-------------------------------------------------------------|

G---------------------------------|
D---------------------------------|
A---------11-11-11-11-11-11-11-11-|
E-88888888------------------------|

                                   *=LET IT RING
G---------------------------------------------------|
D---------------------------------------------------|
A-6--5---------6--5--------6-5-------3*---/15*----3-|
E-------8--66--------8--66-----8--66----------------|
            
Submit corrections

comments powered by Disqus
↑ Back to top | Hardcore Superstar Bass for We Don't Celebrate Sundays. Lyrics for acoustic guitar and electric guitar. Tablatures and chords are parodies/interpretations of the original songs. You may use it for private study, scholarship, research or language learning purposes only