» » »

Hardcore Superstar, Someone Special Tabs (ver.1)

Artists:  A B C D E F G H I J K L M N O P Q R S T U V W X Y Z # 

Someone Special Tabs (ver.1)

Hardcore Superstar Tabs
 Rating:
3.6/5 (5 votes)
Someone Special lessons Tabs too difficult? Try these video lessons and learn fast
1
                h = Hammer on
p = Pull of
s = Slide
v = Vibrato
* = Harmonic


(riff and verse) (as riff, two times. as verse, two times = x4)
---------------------------------------------------------------
---------------------------------------------------------------
---------------------------------------------------------------     x4
---------------------------------------------------------------
6-6-6-6-6-6-6-6-4-4-4-4-4-4-4-4-2-2-2-2-4-4-4-4-6-6-6-6-6-6-6-6
4-4-4-4-4-4-4-4-2-2-2-2-2-2-2-2-0-0-0-0-2-2-2-2-4-4-4-4-4-4-4-4


(verse, continue)
---------------------------------------------------------------
---------------------------------------------------------------
---------------------------------------------------------------
---------------------------------------------------------------
6-6-6-6-6-6-6-6-2-2-2-2-2-2-2-2-6-6-6-6-6-6-6-6-2-2-2-2-2-2-2-2
4-4-4-4-4-4-4-4-0-0-0-0-0-0-0-0-4-4-4-4-4-4-4-4-0-0-0-0-0-0-0-0


---------------
---------------
---------------
---------------
4-4-4-4-4-4-4-4
2-2-2-2-2-2-2-2

(Chorus)
---------------------------------------------------------------
---------------------------------------------------------------
---------------------------------------------------------------    x2
4-4-4-4-4-4-4-4-8-8-8-8-8-8-8-8-9-9-9-9-9-9-9-9-(11)(11)(11)(11)
2-2-2-2-2-2-2-2-6-6-6-6-6-6-6-6-7-7-7-7-7-7-7-7-9-9-9-9-9-9-9-9
---------------------------------------------------------------


(you can play the chorus like this too)
---------------------------------------------------------------
---------------------------------------------------------------
---------------------------------------------------------------
---------------------------------------------------------------
9-9-9-9-9-9-9-9-13-13-13-13-13-13-13-13-14-14-14-14-14-14-14-14
7-7-7-7-7-7-7-7-11-11-11-11-11-11-11-11-12-12-12-12-12-12-12-12


-----------------------
-----------------------
-----------------------        x2
-----------------------
16-16-16-16-16-16-16-16
14-14-14-14-14-14-14-14


(I didn't have time for the solo couse I'm about to go to a friend but
I handle the solo later on :D )



1. You came to me as a little (miss child?). 
  Your the only one my spirit goes. Don't 
  make our time together a moment of joy couse
  now we guide us through.
  maybe you want it to. maybe you, couse I don't
  wanna be the one that send you away.

 (Chorus).
 Someday you gonna be someone special. The places
 We feel and the places we've seen. (x2)

 (solo)

2. I know that it was times of change and 
   there were times I didn't understand.
   And I know it was times that I would 
   hold your hand but baybe, now I'm here
   for you.
   Maybe you want it to. maybe you, couse 
   I don't wanna be the one that send you 
   away.

  (Chorus..)
            
Submit corrections

comments powered by Disqus
↑ Back to top | Hardcore Superstar Tabs for Someone Special. Lyrics for acoustic guitar and electric guitar. 1 Tablatures and chords are parodies/interpretations of the original songs. You may use it for private study, scholarship, research or language learning purposes only