» » »

Someone Special Bass tabs (ver.1)

Artists:  A B C D E F G H I J K L M N O P Q R S T U V W X Y Z # 

Someone Special Bass tabs (ver.1)

Hardcore Superstar
Rating:
0/5 (0 votes)

Hard to play? Try these video lessons and learn fast.
                Standard Tuning - E A D G

These are all the bass lines for the song but you'll have to put
them in order yourself.

Intro/Verse:
G|---------------------------------|
D|---------------------------------|
A|---------------------------------|
E|-4-4-4-4-4-4-4-4-2-2-2-2-2-2-2-2-|


G|---------------------------------|
D|---------------------------------|
A|---------------------------------|
E|-0-0-0-0-2-2-2-2-4-4-4-4-4-4-4-4-|

Pre-Chorus 1:
G|---------------------------------|
D|---------------------------------|
A|-----------------2-2-2-2-2-2-2-2-|
E|-4-4-4-4-4-4-4-4-----------------|

G|---------------------------------|
D|---------------------------------|
A|-----------------2-2-2-2-2-2-2-2-|
E|-4-4-4-4-4-4-4-4-----------------|

G|---------------------------------|
D|---------------------------------|
A|---------------------------------|
E|-2-2-2-2-2-2-2-2-2-2-2-2-2-2-2-2-|

G|---------------------------------|
D|---------------------------------|
A|---------------------------------|
E|-2-2-2-2-2-2-2-2-2-2-2-2-2-2-2-2-|

Chorus:
G|---------------------------------|
D|---------------------------------|
A|-2-2-2-2-2-2-2-2-----------------|
E|-----------------2-2-2-2-2-2-2-2-|

G|---------------------------------|
D|---------------------------------|
A|---------------------------------|
E|-0-0-0-0-0-0-0-0-2-2-2-2-2-2-2-2-|
            
Hard to play? Try these video lessons and learn fast. | Correct




comments powered by Disqus
↑ Back to top | Tablatures and chords are parodies/interpretations of the original songs. You may use it for private study, scholarship, research or language learning purposes only