» » »

Hans Zimmer, Hes A Pirate Tabs (ver.1)

Artists:  A B C D E F G H I J K L M N O P Q R S T U V W X Y Z # 

Hes A Pirate Tabs (ver.1)

Hans Zimmer Tabs
Rating:
4/5 (8 votes)
Hes A Pirate lessons Tabs too difficult? Try these video lessons and learn fast
                Hi this is a tab I copy and pasted but I've edited it quite abit. Hope you like it :-) 

Introduction - Palm mute the A's except the chord
E|--------------|--------------|--------------|------|
B|--------------|--------------|--------------|-7----| let the chord ring
G|--------------|--------------|--------------|-7----|
D|--------------|--------------|--------------|------|
A|-5-55-55-5555-|-5-55-55-5555-|-5-55-55-5555-|-5----|
E|--------------|--------------|--------------|------|


Main Riff - Paly Twice
E|-----|-------|-------|-------|---------|
B|-----|-------|-5-6-6-|-8-5-5-|---------|
G|-2-5-|-7-7-7-|-------|-------|-7-5-5-7-|
D|-----|-------|-------|-------|---------|
A|-----|-------|-------|-------|---------|
E|-----|-------|-------|-------|---------|

E|-----|-------|-------|-------|-------|
B|-----|-------|-5-6-6-|-8-5-5-|-------|
G|-2-5-|-7-7-7-|-------|-------|-7-5-7-|
D|-----|-------|-------|-------|-------|
A|-----|-------|-------|-------|-------|
E|-----|-------|-------|-------|-------|


E|-----|-------|-------|-5-6-6-5-|---5---|-----------|-5-------|------|
B|-----|-------|-6-8-8-|---------|-8-----|---5-6-6-8-|-----6-5-|5-6---|
G|-2-5-|-7-7-7-|-------|---------|-----7-|-7---------|---7-----|----7-|
D|-----|-------|-------|---------|-------|-----------|---------|------|
A|-----|-------|-------|---------|-------|-----------|---------|------|
E|-----|-------|-------|---------|-------|-----------|---------|------|


Interlude
E|------------|-5-------|-6-------|--------|
B|--3-3-5-6-8-|---6-3---|---6-3---|--------|
G|------------|-------2-|-------3-|--2-3-2-|
D|------------|---------|---------|--------|
A|------------|---------|---------|--------|
E|------------|---------|---------|--------|

E|-5-5-5-6-5-|------------|-5-5-5-6-5-|---------|
B|-3-3-3-3-3-|-8-8-8-8-10-|-3-3-3-3-3-|-6-6-5-3-|
G|-----------|------------|-----------|---------|
D|-----------|------------|-----------|---------|
A|-----------|------------|-----------|---------|
E|-----------|------------|-----------|---------|

Solo Part
E|-------|---5---|-------|---5---|---------|--------|--------|--------|
B|---5-6-|-8---8-|-6-5-6-|-8---8-|----8-10-|-10-8---|--------|--------|
G|-7-----|-------|-------|-------|-10------|------9-|-10-9-7-|-9----7-|
D|-------|-------|-------|-------|---------|--------|--------|---10---|
A|-------|-------|-------|-------|---------|--------|--------|--------|
E|-------|-------|-------|-------|---------|--------|--------|--------|

E|-------|-------|-----5-|-------|---------|----5-6-|--------|--------|
B|---5-6-|-5-6-8-|-6-8---|-8-6---|----5-6--|--8-----|---8-6--|-8-5-3--|
G|-7-----|-------|-------|-----7-|--7------|--------|-7------|--------|
D|-------|-------|-------|-------|---------|--------|--------|--------|
A|-------|-------|-------|-------|---------|--------|--------|--------|
E|-------|-------|-------|-------|---------|--------|--------|--------|

Ending Part One
E|--5-6-5-5-5-5-3-|-3-----------|
B|--3-3-3-3-3-3-3-|-3-6-5-6-5-3-|
G|----------------|-------------|
D|----------------|-------------|
A|----------------|-------------|
E|----------------|-------------|

E|-----5----6----|-5-5-5-5-3-|-3-----------|
B|--33---33---33-|-3-3-3-3-3-|-3-6-5-6-5-3-|
G|---------------|-----------|-------------|
D|---------------|-----------|-------------|
A|---------------|-----------|-------------|
E|---------------|-----------|-------------|

Ending Part Two - Play twice and let the final note ring
E|--5-6-5-5-8-5-3-|-3-----------|
B|----------------|---6-5-6-5-3-|
G|----------------|-------------|
D|----------------|-------------|
A|----------------|-------------|
E|----------------|-------------|
            

comments powered by Disqus
↑ Back to top | Hans Zimmer Tabs for Hes A Pirate. Lyrics for acoustic guitar and electric guitar. Tablatures and chords are parodies/interpretations of the original songs. You may use it for private study, scholarship, research or language learning purposes only