» » »

Hes A Pirate Tabs (ver.2)

Artists:  A B C D E F G H I J K L M N O P Q R S T U V W X Y Z # 

Hes A Pirate Tabs (ver.2)

Hans Zimmer
Rating:
4/5 (1 vote)

Hard to play? Try these video lessons and learn fast.
                (Intro)
Ok, this is my first tab. The beginning is like some of the other versions, but
 the ending is different.

  |-------------------------------P.M.-------------------------------|
E|------------------|------------------|------------------|----------|
B|------------------|------------------|------------------|-7--------|
G|------------------|------------------|------------------|-7--------|
D|------------------|------------------|------------------|----------|
A|-5--55--55--5555--|-5--55--55--5555--|-5--55--55--5555--|-5--------|
E|------------------|------------------|------------------|----------|

E|---------------------------------|----------------------------------|
B|-----------5-6-6-6-8-5-5---------|------------5-6-6-6-8-5-5---------|
G|---5-7-7-7---------------7-5-5-7-|----5-7-7-7---------------7-5-7---|
D|-7-------------------------------|--7-------------------------------|
A|---------------------------------|----------------------------------|
E|---------------------------------|----------------------------------|

E|-------------------5-6-6-5---5---|--------------5----|----------------||
B|-----------6-8-8-8---------8-----|----5-6-6-8--------|----6-5-5-6---5-||
G|---5-7-7-7---------------------7-|--7------------7---|--7---------7---||
D|-7-------------------------------|-------------------|----------------||
A|---------------------------------|-------------------|----------------||
E|---------------------------------|-------------------|----------------||

And that's all there is to it. Have fun!
            
Hard to play? Try these video lessons and learn fast. | Correct




comments powered by Disqus
↑ Back to top | Tablatures and chords are parodies/interpretations of the original songs. You may use it for private study, scholarship, research or language learning purposes only