» » »

Hans Zimmer, Time Tabs (ver.1)

Artists:  A B C D E F G H I J K L M N O P Q R S T U V W X Y Z # 

Time Tabs (ver.1)

Hans Zimmer Tabs
Rating:
4/5 (3 votes)
Time lessons Tabs too difficult? Try these video lessons and learn fast
                Tuning: Standard

h = hammer-on

0:00 Am    Em    G     D
e|---------3-----------2-----|
B|---1-----------0-----3-----|
G|---2-----0-----0-----------|
D|---------------------0-----|
A|---0-----------------------|
E|---------0-----3-----------|

0:16 Am    C     G     D
e|---------7-----------2-----|
B|---1-----------0-----3-----|
G|---2-----0-----0-----------|
D|---------------------0-----|
A|---0-----------------------|
E|---------8-----3-----------|

1:00 Am       Em       G        D
e|------------3--2-0------------2--0-----|
B|---1--0--------------0--------3----3---|
G|---2----2---0--------0--2-0------------|
D|------------------------------0--------|
A|---0-----------------------------------|
E|------------0--------3-----------------|

1:16 Am       C         G        D
e|------------7------------------2--0-----|
B|---1--0--------10-8---0--------3----3---|
G|---2----2---0---------0--2-0------------|
D|-------------------------------0--------|
A|---0------------------------------------|
E|------------8---------3-----------------|

2:00 Am
e|---5h7-7---5h7-7---5h7-7---5h7-7-----|
B|---------5-------5-------5-------5---|
G|-------------------------------------|
D|-------------------------------------|
A|---0---------------------------------|
E|-------------------------------------|
     Em
e|---5h7-7---5h7-7---5h7-7---5h7-7-----|
B|---------5-------5-------5-------5---|
G|-------------------------------------|
D|-------------------------------------|
A|-------------------------------------|
E|---0---------------------------------|
     G
e|---5h7-7---5h7-7---5h7-7---5h7-7-----|
B|---------5-------5-------5-------5---|
G|---0---------------------------------|
D|-------------------------------------|
A|-------------------------------------|
E|-------------------------------------|
     D
e|---3h5-5---3h5-5---3h5-5---3h5-5-----|
B|---------3-------3-------3-------3---|
G|-------------------------------------|
D|---0---------------------------------|
A|-------------------------------------|
E|-------------------------------------|

2:18 Am
e|---5h7-7---5h7-7---5h7-7---5h7-7-----|
B|---------5-------5-------5-------5---|
G|-------------------------------------|
D|-------------------------------------|
A|---0---------------------------------|
E|-------------------------------------|
     C
e|---5h7-7---5h7-7---5h7-7---5h7-7-----|
B|---------5-------5-------5-------5---|
G|---5---------------------------------|
D|-------------------------------------|
A|-------------------------------------|
E|-------------------------------------|
     G
e|---5h7-7---5h7-7---5h7-7---5h7-7-----|
B|---------5-------5-------5-------5---|
G|---0---------------------------------|
D|-------------------------------------|
A|-------------------------------------|
E|-------------------------------------|
     D
e|---3h5-5---3h5-5---3h5-5---3h5-5-----|
B|---------3-------3-------3-------3---|
G|-------------------------------------|
D|---0---------------------------------|
A|-------------------------------------|
E|-------------------------------------|

3:34
     Am    Em    G     D
e|---------3-----------2-----|
B|---1-----------0-----3-----|
G|---2-----0-----0-----------|
D|---------------------0-----|
A|---0-----------------------|
E|---------0-----3-----------|

     Am    C     G     D
e|---------7-----------2-----|
B|---1-----------0-----3-----|
G|---2-----0-----0-----------|
D|---------------------0-----|
A|---0-----------------------|
E|---------8-----3-----------|
            

comments powered by Disqus
↑ Back to top | Hans Zimmer Tabs for Time. Lyrics for acoustic guitar and electric guitar. Tablatures and chords are parodies/interpretations of the original songs. You may use it for private study, scholarship, research or language learning purposes only