» » »

Hammerfall, Hearts On Fire Tabs (ver.2)

Artists:  A B C D E F G H I J K L M N O P Q R S T U V W X Y Z # 

Hearts On Fire Tabs (ver.2)

Hammerfall Tabs
 Rating:
4/5 (4 votes)
Hearts On Fire lessons Tabs too difficult? Try these video lessons and learn fast
                (Solo)
90 BPM


^
| = Bend Full step up

|
V = Bend full step down

h = Hammer-On
p= Pull off

|--------------------------------------|------------------------------------|
|-15-------------5--6------------------|----^---------|---------------------|
|--P-------------7--7------------------|--17|-17-17-17V-15-17---------------|
|--------------------------------------|--------------------P---------------|
|--------------------------------------|------------------------------------|
|--------------------------------------|------------------------------------|
                                         Hold the bend

|--------------------------------------|-15^----15-13--------13-------13----|
|-15---15-----------15-----15----------|---|----------17-17-----15-17-------|
|-------P----17-17------17--P----------|------------------------------------|
|--------------------------------------|------------------------------------|
|--------------------------------------|------------------------------------|
|--------------------------------------|------------------------------------|


|-17p13----------13-17p13----22p17----------17-22p17----20p17---------------|
|------15----15-----------15-------18----18----------18-------18------------|
|---------14--------------------------19------------------------------------|
|---------------------------------------------------------------------------|
|---------------------------------------------------------------------------|
|---------------------------------------------------------------------------|


|-20p18p17-18p17p15-17p15p13-15p13p12-13p12p10-12p10p8----------------------|
|------------------------------------------------------15p13p11-13p11p10----|
|---------------------------------------------------------------------------|
|---------------------------------------------------------------------------|
|---------------------------------------------------------------------------|
|---------------------------------------------------------------------------|

|-14------------15----15^--------------|---------20p15----------------------|
|-----------------------|--------------|20-22-18-------18-20-18-17-18-17-15-|
|--------------------------------------|------------------------------------|
|--------------------------------------|------------------------------------|
|--------------------------------------|------------------------------------|
|--------------------------------------|------------------------------------|

|----------20p15-------------------20p15------------------------------------|
|-20-22-18-------18-------20-------------18-20-18-17-18-17-15-17------------|
|-------------------19-17----19-17------------------------------------------|
|---------------------------------------------------------------------------|
|---------------------------------------------------------------------------|
|---------------------------------------------------------------------------|

|-17-------17-15----15---17------------|-18---18--20--20-18-18-17-17-15-----|
|----------------17--------------------|------------------------------------|
|--------------------------------------|------------------------------------|
|--------------------------------------|------------------------------------|
|--------------------------------------|------------------------------------|
|--------------------------------------|------------------------------------|


|-17----17----15-17--------------------|--18-------17--15-------------------|
|----------15--------------------------|------------------------------------|
|--------------------------------------|------------------------------------|
|--------------------------------------|------------------------------------|
|--------------------------------------|------------------------------------|
|--------------------------------------|------------------------------------|
            
Submit corrections

comments powered by Disqus
↑ Back to top | Hammerfall Tabs for Hearts On Fire. Lyrics for acoustic guitar and electric guitar. Tablatures and chords are parodies/interpretations of the original songs. You may use it for private study, scholarship, research or language learning purposes only