>
 >
Any Means Necessary 1

Any Means Necessary 1 Guitar Tabs

Hammerfall - Any Means Necessary 1 chords, tabs, tablatures, lyrics

Guitar lessons | Add/correct | Request | Top 50 tabs Artists:  A B C D E F G H I J K L M N O P Q R S T U V W X Y Z 0-9

Any Means Necessary 1 Guitar Tabs – Hammerfall

CD, Sheet music, Poster

Do you like Any Means Necessary 1? Share with your friends now
ChordsTabsTabs v2Tabs v3Ukulele
this cause some other guys was WRONG, although not entirely.
And well heres my version of it.

Intro

Pick scrape intro
E-----------------------------------------|
B-----------------------------------------|
G---------------------------------------3-|
D-\2-2---2--0--2--3--0---2-2---2--0--2--3-|
A-\2-2---2--0--2--3--0---2-2---2--0--2--1-|
E-----------------------------------------|x2


Verse:


E-------------------------------------------------------------|
B-------------------------------------------------------------|
G-------------------------------------------------------------|
D------------------------5\-3----------------------------5\-3-|
A-3--3-3-3--3-3-3--3-3-3-3\-1--3--3-3-3--3-3-3--3--3-3-3-3\-1-|
E-------------------------------------------------------------|


E-------------------------------------------|
B-------------------------------------------|
G----------------------------------------8\-|
D----------------------------------------8\-|
A-------------------------------3--3-3-3-6\-|
E-4--4-4-4--4-4--6--6-6-6--6-6--------------|

E-------------------------------------------------------------|
B-------------------------------------------------------------|
G-------------------------------------------------------------|
D------------------------5\-3----------------------------5\-3-|
A-3--3-3-3--3-3-3--3-3-3-3\-1--3--3-3-3--3-3-3--3--3-3-3-3\-1-|
E-------------------------------------------------------------|


E-------------------------------------------|
B-------------------------------------------|
G-------------------------------------------|
D----------------------------------------8\-|
A----------------6--6-6-6--6-6-----------8\-|
E-4--4-4-4--4-4-----------------4--4-4-4-6\-|


Pre-Chorus:


E-------------------------------------------------------------|
B-------------------------------------------------------------|
G-------------------------------------------------------------|
D-------------------------------------------------------------|
A-------------------------------------------------------------|
E-3--3-3-3--3-3-3---3-3-3---3-3---4--4-4-4--4-4-4--4-4-4--4-4-|

E----------------------|
B----------------------|
G----------------------|
D-8--8--------8--8--8~-|
A-6--6--6--6--6--6--8~-|
E-------4--4--------6~-|


Chorus:


E---------------------------------|
B---------------------------------|
G-7--------5-------7--------5-----|
D-7---8----5---7---7---8----5---7-|
A-5---8----3---7---5---8----3---7-|
E-----6--------5-------6--------5-|

After Chorus:


E--------------------------------------------------|
B--------------------------------------------------|
G--------------------------------------------------|
D-----------------------------------------------7\-|
A--5--5-5-5--5-5-5--5-5-5--5-5-5--5-5-5--5-5-5--5\-|
E--------------------------------------------------|

Verse:


E-------------------------------------------------------------|
B-------------------------------------------------------------|
G-------------------------------------------------------------|
D------------------------5\-3----------------------------5\-3-|
A-3--3-3-3--3-3-3--3-3-3-3\-1--3--3-3-3--3-3-3--3--3-3-3-3\-1-|
E-------------------------------------------------------------|


E-------------------------------------------|
B-------------------------------------------|
G----------------------------------------8\-|
D----------------------------------------8\-|
A-------------------------------3--3-3-3-6\-|
E-4--4-4-4--4-4--6--6-6-6--6-6--------------|


E-------------------------------------------------------------|
B-------------------------------------------------------------|
G-------------------------------------------------------------|
D------------------------5\-3----------------------------5\-3-|
A-3--3-3-3--3-3-3--3-3-3-3\-1--3--3-3-3--3-3-3--3--3-3-3-3\-1-|
E-------------------------------------------------------------|


E-------------------------------------------|
B-------------------------------------------|
G-------------------------------------------|
D----------------------------------------8\-|
A----------------6--6-6-6--6-6-----------8\-|
E-4--4-4-4--4-4-----------------4--4-4-4-6\-|


Pre-Chorus:

E-------------------------------------------------------------|
B-------------------------------------------------------------|
G-------------------------------------------------------------|
D-------------------------------------------------------------|
A-------------------------------------------------------------|
E-3--3-3-3--3-3-3---3-3-3---3-3---4--4-4-4--4-4-4--4-4-4--4-4-|

E----------------------|
B----------------------|
G----------------------|
D-8--8--------8--8--8~-|
A-6--6--6--6--6--6--8~-|
E-------4--4--------6~-|

Chorus:


E---------------------------------|
B---------------------------------|
G-7--------5--------7--------5----|
D-7---8----5---7----7---8----5---7|
A-5---8----3---7----5---8----3---7|
E-----6--------5--------6--------5|


E---------------------------------------|
B---------------------------------------|
G-10---------8---------10---------8-----|
D-10---11----8---10----10---11----8---10|
A-8----11----6---10----8----11----6---10|
E------9---------8----------9---------8-|


After Chorus:


E---------------------------------|
B---------------------------------|
G--------------3~---------------2~|
D--------------3~---------------2~|
A-5--5-5-5-5-5-1~--3--3-3-3-3-3---|
E---------------------------------|x2


Bridge:

1st guitar:

E---------------------------------------------------------|
B---------------------------------------------------------|
G-10-12-13-12-10-----13-12-10--12-13-15-13-12-----15-13-12|
D----------------11b--------------------------13b---------|
A---------------------------------------------------------|
E---------------------------------------------------------|x2

2nd guitar:

E------------------------------------|
B------------------------------------|
G---------------3~----------------2~-|
D---------------3~----------------2~-|
A-5--5-5-5-5-5--1~--3--3-3-3-3-3-----|
E------------------------------------|x4

Solo:


E----------------------------------------------------------|
B----------------------------------------------------------|
G-13b-12-10b--10-12-13b-12-10b--12-13-15b--13-12-13-12-12b-|
D----------------------------------------------------------|
A----------------------------------------------------------|
E----------------------------------------------------------|


E-------------------------------------------------------------------------|
B-------------------------------------------------------------------------|
G-13p12-13p12-10b--10-12--13p12-13p12-10b--12-13-15b--13-15-17b--15-13-15-|
D-------------------------------------------------------------------------|
A-------------------------------------------------------------------------|
E-------------------------------------------------------------------------|


E----13-15-17-15-13------17--15-17-15-13-|
B-13-----------------15------------------|
G----------------------------------------|
D----------------------------------------|
A----------------------------------------|
E----------------------------------------|


E-15-17-18-17-15------18--17-18-17-15-|
B-----------------17------------------|
G-------------------------------------|
D-------------------------------------|
A-------------------------------------|
E-------------------------------------|


E-17p13----------13h17p13----------13h18p13----------13h18p13----------13-|
B-------15----15----------15----15----------15----15----------15----15----|
G----------14----------------14----------------15----------------15-------|
D-------------------------------------------------------------------------|
A-------------------------------------------------------------------------|
E-------------------------------------------------------------------------|


E-20p15----------15h20p15----------15h20-15p12----------12h15----------12-|
B-------17----17----------17----17-------------14----14-------14----14----|
G----------17----------------17-------------------15-------------15-------|
D-------------------------------------------------------------------------|
A-------------------------------------------------------------------------|
E-------------------------------------------------------------------------|


After Solo:


E----------------------------------------|
B----------------------------------------|
G--------------------------------------3-|
D-2-2---2--0--2--3--0---2-2---2--0--2--3-|
A-2-2---2--0--2--3--0---2-2---2--0--2--1-|
E----------------------------------------|x2


Chorus:


E----------------------------------|
B----------------------------------|
G-7--------5--------7--------5-----|
D-7---8----5---7----7---8----5---7-|
A-5---8----3---7----5---8----3---7-|
E-----6--------5--------6--------5-|


E----------------------------------------|
B----------------------------------------|
G-10---------8---------10---------8------|
D-10---11----8---10----10---11----8---10-|
A-8----11----6---10----8----11----6---10-|
E------9---------8----------9---------8--|


E-------------------------------------|
B-------------------------------------|
G-------------------------------------|
D---------------6~-----------------5~-|
A---------------4~-----------------3~-|
E-1--1-1-1-1-1------6--6-6-6-6-6------|x3

Ending:


E---------------------|
B---------------------|
G-5---5---5---5~------|
D-5---5---5---5~---3~-|
A-3---3---3---3~---3~-|
E------------------1~-|


This bit is REALLY hard to hear
but its played in the background
E----------------|
B----------------|
G----------------|
D-6--3--5--6--3~-|
A----------------|
E----------------|





Comments


Popular Hammerfall tabs & chords
Allways Will Be Bass Tabs
Always Will Be 1 Chords
The Fallen One Chords
Remember Yesterday Drum Tabs
Crimson Thunder 1 Tabs
Last Man Standing 4 Tabs
Renegade Tabs
Riders Of The Storm Tabs
Unchained Tabs
Nr Vindarna Viskar Mitt Namn Ukulele


Song lyrics



↑ Back to top | Tablatures and chords are parodies/interpretations of the original songs. You may use it for private study, scholarship, research or language learning purposes only
© 2014 AZChords.com Contact us | Privacy policy | DMCA | Add/correct tabs | Request tabs | Top 50 tabs