>
 >
Our Revolution 2

Our Revolution 2 Guitar Tabs

Halifax - Our Revolution 2 chords, tabs, tablatures, lyrics

Guitar lessons | Add/correct | Request | Top 50 tabs Artists:  A B C D E F G H I J K L M N O P Q R S T U V W X Y Z 0-9

Our Revolution 2 Guitar Tabs – Halifax

CD, Sheet music, Poster

Do you like Our Revolution 2? Share with your friends now
Bass TabsTabsTabs v2Tabs v3Tabs v4
----------------------------------------------------------------------------


Legend: h= Hammer on
        p= Pull off
        /= Slide Down
        \= Slide up
        ^= Bend
        ~= Vibrato
       ()= Ghost Note
        *= Pinch Harmonic
        @= Hold Note
       PM= Palm Mute
        != Indications/"Mini Helpers"


Dropped D Tuning: DADGBE
This is 100% correct.. I think


~~Intro
e |----------------------------------------------------------|
B |---------------3-3-3/5-5-6-5-6----------------------------|
G |---------------3-3-3/5-5-5-5-5----------------------------|
D |-5-------------3-3-3/5-5-5-5-5-----3--3-5-----------------|
A |-5-----------------------------3h5----3-5-----------------|
D |-53h4h5-3h4h5------------------------3-5-8-5-8-5-0h3h5--|

                 x7
e |--------------v--------------------|
B |--5-5-5--3-3333333-5---------------|
G |--5-5-5--3-3333333-5---------------|
D |--5-5-5--3-3333333-5---------------|
A |--------------------------3*-------|
D |----------------------0h3----------|

e |-----------------------------------------------------------|
B |----------------3-3-3/5-5-6-5-6----------------------------|
G |----------------3-3-3/5-5-5-5-5----------------------------|
D |-5--------------3-3-3/5-5-5-5-5-----3--3-5-----------------|
A |-5------------------------------3h5----3-5-----------------|
D |-5--8-5-8-5-4h5------------------------3-5-8-5-8-5-0h3h5--|

                 
e |----------------------|
B |--5-5-5--3-3333333-5--|
G |--5-5-5--3-3333333-5--|
D |--5-5-5--3-3333333-5--|
A |----------------------|
D |----------------------|





~~Verse 1   !!(So you don't have to count, P.M. 5 & 8 x14  & 10 x6)
e |--------------------------------------------------------|
B |--------------------------------------------------------|
G |--------------------------------------------------------|
D |-5------------------8------------------10---------------|
A |-5------------------8------------------10---------------|
D |-5--55555555555555--8--88888888888888--10--101010101010-|
     PM..............       ..............     . . . . . . 

e |-----------------------------------|
B |-----------------------------------|
G |-------5-5-------------------------|          ![Verse 1, x2]!
D |--3-3--5-5--5----------------------|
A |--3-3--3-3--5----------------------|
D |--3-3-------5-555555--8-5-8-5-0-3--|
                 ......



~~Pre-Chorus
Gt. 1
e |---------------------------------------------------------------------|
B |---------------------------------------------------------------------|
G |-12--121212121212\10--101010101010/14--141414141414\12--121212121212-|
D |---------------------------------------------------------------------|
A |-10--101010101010\8---8-8-8-8-8-8-/12--121212121212\10--101010101010-|
D |---------------------------------------------------------------------|
Gt. 2
e |---------------------------------------------------------------------|
B |---------------------------------------------------------------------|
G |-3---3-3-3-3-3--3/5---5-5-5-5-5-5------------------------------------|
D |-3---3-3-3-3-3--3/5---5-5-5-5-5-5-\-3--3-3-3---------5--5--5--5--5--5|
A |-1---1-1-1-1-1--1/3---3-3-3-3-3-3-\-3--3-3-3--5-p-3--5--5--5--5--5--5|
D |------------------------------------3--3-3-3---------5--5--5--5--5--5|


Gt. 1
e |----------------------------------------------------------------|
B |----------------------------------------------------------------|
G |-12--121212121212\10--101010101010/14--141414141414--14@@-\-----|
D |----------------------------------------------------------------|
A |-10--101010101010\8---8-8-8-8-8-8-/12--121212121212--12@@-\-----|
D |----------------------------------------------------------------|
Gt. 2
e |----------------------------------------------------------------|
B |----------------------------------------------------------------|
G |----------------------------------------------------------------|
D |-/8--8-8-8-8-8-8-8-8-8-8---/121212\10--101010101010--10@@-\-----|
A |-/8--8-8-8-8-8-8-8-8-8-8---/121212\10--101010101010--10@@-\-----|
D |-/8--8-8-8-8-8-8-8-8-8-8---/121212\10--101010101010--10@@-\-----|

Ok, the pre-chorus was pretty effing confusing to write. Guitar 2 is hard to hear 
and is very faint. But it is played with the same pace as Guitar 1


~~Chorus               
e |--------------------------------------------------|\
B |--------------------3--/5--5-6-5-6----------------| \
G |-----------3-33-333-3--/5--5-5-5-5----------------|  \
D |-5-55-555--3-33-333-3--/5--5-5-5-5----------------|   \
A |-5-55-555--1-11-111-------------------------------|    \
D |-5-55-555-----------------------------------------|     \
                                                            \
                                                            x2
e |--------------------------------------|-----------|      /
B |--------------------------------------|-----------|     /
G |--------------------3-33-333----------|-----------|    /
D |----3--3--5-55-555--3-33-333--3-33-333|333--------|   /
A |-3h5---3--5-55-555--1-11-111--3-33-333|333----5-3-|  /
D |-------3--5-55-555------------3-33-333|333--0-----| /

      On the 2nd time       e |------------------------------|
      before finishing      B |------------------------------|
      the song, cut to      G |------------------------------|
      this short "break",   D |-3-3--4--5--------------------|
      right before the      A |-3-3--4--5--------------------|
      2nd verse starts      D |-3-3--4--5--8-5-8-5-0h3h5-----|

                            e |----------------------------|
                            B |-3-3-3/5-6-5-6--------------|
                            G |-3-3-3/5-5-5-5--------------|
                            D |-3-3-3/5-5-5-5----3---3--5--|
                            A |---------------3h5----3--5--|
                            D |----------------------3--5--|
                                                        !!
                                                        !!
~~Verse 2                      !! - Same Note
e |!!--------------------------------------------------------------|
B |!!--------------------------------------------------------------|
G |!!--------------------------------------------------------------|
D |-5--------------5p3h5--8--------------8h10p8--10--101010101010--|
A |-5--------------5p3h5--8--------------8h10p8--10--101010101010--|
D |-5--55555555555-5p3h5--8--88888888888-8h10p8--10--101010101010--|
     PM...........           ...........             . . . . . .

e |-------------------------------------------|
B |-------------------------------------------|
G |-------5--5--------------------------------|
D |-3--3--5--5--5--5-5-5-5-5-5----------------|   ![Verse 2, x2]!
A |-3--3--3--3--5--5-5-5-5-5-5----------------|
D |-3--3--------5--5-5-5-5-5-5---8-5-8-5--3h4-|


     << After Verse 2, its Pre-Chorus, Chorus, then SOLO! >>



~~Solo               ! - Guitar Screech, Scratch, w/e you wanna call it
e |---------------------------------------------------------|
B |----------3~--------3~---------3-5-3---3-----------------|
G |------!---3~-5-3-5--3~-5-3-5---------5---5-3-5-3-----5*--|
D |------x\-----------------------------------------5-3-----|
A |-7*^--x\-------------------------------------------------|
D |------x\-------------------------------------------------|
                                PM. . . . . . . . . . .
 
e |------------------------------------------------------------------------|
B |------------------------------------------------------------------------|
G |-/14-14-12h10--/14-14-12h10----12-12^-12^12^-12^12^12^--12h10--12h10--12|
D |-------------12--------------12------------------------------12-----12--|
A |------------------------------------------------------------------------|
D |------------------------------------------------------------------------|

                                 v(Tapping part)          v(Killswitch part)
e |-------------------------------------------------------13^--------------|
B |-/15--/13---15p13p11-------13p8h11-x8---18p8h11-x4-18@------------------|
G |--------------------12~-------------------------------------------------|
D |------------------------x\----------------------------------------------|
A |------------------------x\----------------------------------------------|
D |------------------------x\----------------------------------------------|



<<"Hell... Yeah..." Drum / Bass part + Dudes screaming>>



~~Final Chorus for GUITAR 1!! (Gt.2 plays the regular chorus riff)
e |-------------------------------------------|
B |-------------------------------------------|
G |-------------------------------------------|
D |-------------8------------------8----------|
A |-10---10-8-10--10-8-10---10-8-10--10-8-10--|
D |-------------------------------------------|!!!!

e |----------------------------------|       !!!! - play these two riffs x2
B |----------------------------------|
G |----------------------------------|
D |----------8--------8--------8-----|!!!!          
A |---10-8-10--10-8-10--10-8-10--10--|
D |----------------------------------|

e |-------------------------------------------|
B |-------------------------------------------|
G |------------10----------------10-----------|
D |-12---121012---121012---121012---121012----|
A |-------------------------------------------|
D |-------------------------------------------|

e |-----------------------------------|
B |-----------------------------------|
G |-------10------10------10----------|
D |-121012--121012--121012--12--------|          
A |-----------------------------------|
D |-----------------------------------|

e |---------------------------------------------------------------|
B |-----------------------------------------------10--10--11-12\--|
G |------------10----------------10-------------------------------|
D |-12---121012---121012---121012---121012---12\------------------|
A |---------------------------------------------------------------|
D |---------------------------------------------------------------|


~~Outro
e |-----------------------------------------------|
B |----------------3-3-3/5-6-5-6------------------|
G |----------------3-3-3/5-5-5-5------------------|
D |----------------3-3-3/5-5-5-5-----3---3---5\---|
A |-------------------------------3h5----3---5\---|
D |-8-5-8-5-0h3h5------------------------3---5\---|


                             ~~At end, Gt. 1
                             e |----------------|
                             B |-----6----------|
                             G |--5h7-----------|
                             D |---------3-4-5\-|
                             A |----------------|
                             D |----------------|


This took for about 4 hours. I'm pooped. Hopefully someone wants to learn my 
version of the song lol.





Comments


Popular Halifax tabs & chords
Our Last Dance Bass Tabs
Sydney Bass Tabs
Anthem For Tonight Intro Tabs
Better Than SexIntro Tabs
Broken Glass Syndrome 1 Tabs
Broken Glass Syndrome Intro Tabs
I Told You So Intro Tabs
Our Revelution Tabs
Sydney 3 Tabs
Sydney Ukulele


Song lyrics



↑ Back to top | Tablatures and chords are parodies/interpretations of the original songs. You may use it for private study, scholarship, research or language learning purposes only
© 2014 AZChords.com Contact us | Privacy policy | DMCA | Add/correct tabs | Request tabs | Top 50 tabs