>
 >
Our Revolution 1

Our Revolution 1 Guitar Tabs

Halifax - Our Revolution 1 chords, tabs, tablatures, lyrics

Guitar lessons | Add/correct | Request | Top 50 tabs Artists:  A B C D E F G H I J K L M N O P Q R S T U V W X Y Z 0-9

Our Revolution 1 Guitar Tabs – Halifax

CD, Sheet music, Poster

Do you like Our Revolution 1? Share with your friends now
Bass TabsTabsTabs v2Tabs v3Tabs v4
Halifax
Our Rvolution
Drop D
This tab is made mainly because i had trouble getting the guitar pro one because the 
has ended so in short this tab is mainly the guitar pro tab with a few changes


Intro  (X how ever many times needed)
G|--------------------------9-10--9---------|
D|-5/-5-----------------8--10-10-10--------3|
A|-5/-5-----------------8-----------0/5/8--3|
D|-5/-5---8\5-8\5-0/3/5-8------------------3|
Intro Ending
G|----------------------------------|
D|-5/-5-----------------10--8-------|
A|-5/-5-----------------10--8----*7*|
D|-5/-5---8\5-8\5-0/3/5-10--8--0----|

Verse
G|-----5---5---------------|
D|-5-8-5-3-5-5-------------|
A|-5-8-3-3-3-5-------------|
D|-5-8---3---5-8/5-8/5-3/4-|

Pre Chorus
G|-3---5---3-5-|
D|-3-3-5-5-3-5-|
A|-1-3-3-5-1-3-|
D|---3---5-----|

Chorus  (Repeat as many times)
G|---3-10-11-10--------|
D|-5-3-10-11-10-5-----3|
A|-5-1-8--9--8--0/5/8-3|
D|-5-----5------------3|

Verse

Pre Chorus

Chorus

Solo
e|--10b13------------------------------------------------------------------|
B|-------------------------------------------------------------------------|
G|--------------------------3-------3---------3-5-3---3-------------5~-----|
D|----------------------------5-3-5---5-3-5---------5---5-4-3--------------|
A|------------------------------------------------------------5-4-3--------|
D|--------x/x/x/x/x/x/x/x--------------------------------------------------|
             pick slide

e|-------------------------------------------------------------------------|
B|-------------------------------------------------------------------------|
G|-14b15-12--10------14b15-12--10----14b16hold bend and keep picking-------|
D|---------------12---------------12---------------------------------------|
A|-------------------------------------------------------------------------|
D|-------------------------------------------------------------------------|


e|---------------------------------------------------------------------------|
B|-----------------------------15-13-11h13p11--------------------------------|
G|--14p12p10---14p12p10----14----------------12------------------------------|
D|-----------12----------12--------------------------------------------------|
A|---------------------------------------------------------------------------|
D|----------------------------------------------x/x/x/x/x/x/x/x/x/x/x--------|

e|---------------------------------------------13b15------------------------|
B|--t14p8h11---8 times----t16p10h13---5 times-------------------------------|
G|--------------------------------------------------------------------------|
D|--------------------------------------------------------------------------|
A|--------------------------------------------------------------------------|
D|--------------------------------------------------------------------------|

Chorus

Guitar 2
D|---------8|---------------|---------10|---------------=--------|
A|-10-8-10--|(as many times)|12-10-12---|(as many times needed)--|
D|----------|---------------|-----------|------------------------|

Intro





Comments


Popular Halifax tabs & chords
Broken Glass Syndrome Intro Chords
Sydney Chords
Anthem For Tonight Intro Tabs
Call All Your Reserves Tabs
I Hate Your Eyes Tabs
I Told You So Tabs
Our Revolution 2 Tabs
Our Revolution 4 Tabs
Chaos Ukulele
Sydney 2 Ukulele


Song lyrics



↑ Back to top | Tablatures and chords are parodies/interpretations of the original songs. You may use it for private study, scholarship, research or language learning purposes only
© 2014 AZChords.com Contact us | Privacy policy | DMCA | Add/correct tabs | Request tabs | Top 50 tabs