» » »

Halifax, Our Revolution Tabs (ver.2)

Artists:  A B C D E F G H I J K L M N O P Q R S T U V W X Y Z # 

Our Revolution Tabs (ver.2)

Halifax Tabs
 Rating:
4/5 (12 votes)
Our Revolution lessons Tabs too difficult? Try these video lessons and learn fast
                Our Revolution Tab
Key:
/-slide up to designated fret #
\-slide down to designated fret #
*-rake (press the end of the pick against the neck, and slide it along the string for a
sound (press pick against designated string
>-hold the note out
~-bend and release repeatedly
H-hammer-on to designated fret #
P-pull-off to designated fret #
B-bend to pitch of designated fret #
R-release bend
X-muted string
‘’-palm muted (whatever’s in the quotes)
.-staccato (mute note almost instantly after you play it.)
This is in drop-d tuning (If you want, you can make it in regular tuning, but drop-d
because you can bar the power chords in the quick chord changes). This song is quite fast,
don’t give up just because it’s fast… It took me a while. If you don’t know what drop-d 
is, tune the low E string’s seventh fret to the open a string

Intro: there are two guitars playing throughout the song, so the bottom is the rhythm
the top is the lead
E|--------------------------------------------------------------|
B|--------------------------------------------------------------|
G|---------------3.-3--3--3—-3.5.-6.-5.-6.----------------------|
D|--5------------3.-3--3--3—-3.5.-5.-5.-5.-----3----------------|
A|--5------------1.-1.-1.-1—-1.3.-3.-3.-3.-3h5------------------|
D|--5--8p5-3h4h5---------------------------------3--------------|
                                                                |
E|--------------------------------------------------------------|
B|--------------------------------------------------------------|
G|------------------------------------------------5-------------|
D|--5\--------------------------------------------5-3-5---------|
A|--5\--------------------------------------------3-3-5---------|
D|--5\----------------------------------------------3-5---------|

E|--------------------------------------------------------------|
B|--------------------------------------------------------------|
G|------------------5.-5.-5.-3--3-3-3-3-3-3-3-5.----------------|
D|--5---------------5.-5.-5.-3--3-3-3-3-3-3-3-5.----------------|
A|--5---------------3.-3.-3.-1--1-1-1-1-1-1-1-3.---12~~---------|
D|--5-8p5-8p5-3h4h5------------------------------0--------------|
                                                                |
E|--------------------------------------------------------------|
B|--------------------------------------------------------------|
G|--------------------------------------------------------------|
D|--5\-------------10.10.10.-8--8-8-8-8-8-8-8-10.---------------|
A|--5\-------------10.10.10.-8--8-8-8-8-8-8-8-10.—12~~----------|
D|--5\-------------10.10.10.-8--8-8-8-8-8-8-8-10.0--------------|
The Guitars are the same here…
The only difference is that the second guitar doesn’t do the single notes (only the chords)
E|--------------------------------------------------------------|
B|--------------------------------------------------------------|
G|---------------------3.-3.-3--3--3—-3.5.-6.-5.-6.-------------|
D|--5--5-8-5-8-5-3-4-5-3.-3.-3--3--3—-3.5.-6.-5.-6.-----3-------|
A|--5--5-8-5-8-5-3-4-5-1.-1.-1.-1.-1—-1.3.-3.-3.-3.-3h5---------|
D|--5--5-8-5-8-5-3-4-5------------------------------------3-----|

E|--------------------------------------------------------------|
B|--------------------------------------------------------------|
G|-------------------5.-5.-5.-3--3-3-3-3-3-3-3-5.---------------|
D|--5--8-5-8-5-3-4-5-5.-5.-5.-3--3-3-3-3-3-3-3-5.---------------|
A|--5--8-5-8-5-3-4-5-3.-3.-3.-1--1-1-1-1-1-1-1-3.---------------|
D|--5--8-5-8-5-3-4-5--------------------------------------------|

Verse:
E|--------------------------------------------------------------|
B|--------------------------------------------------------------|
G|----------------------------3-‘3-3-3-3-3-3-3-3-3-3-3’-5-------|
D|--5-‘5-5-5-5-5-5-5-5-5-5-5’-3-‘3-3-3-3-3-3-3-3-3-3-3’-5-------|
A|--5-‘5-5-5-5-5-5-5-5-5-5-5’-1-‘1-1-1-1-1-1-1-1-1-1-1’-3-------|
D|--5-‘5-5-5-5-5-5-5-5-5-5-5’-----------------------------------|

E|---------------------------------------------|
B|---------------------------------------------|
G|-‘5-5-5-5-5’----5----------------------------|
D|-‘5-5-5-5-5’-3--5--5-‘5-5-5-5-5’-------------|
A|-‘3-3-3-3-3’-3--3--5-‘5-5-5-5-5’-------------|
D|-------------3-----5-‘5-5-5-5-5’-8p5-8p5-3h5-|x2

W/ lyrics
We are famous faces
We are legends of the underground
The west coast is dying, but we're still getting down
Hollywood's got stilettos
Walking egos in skirts
Setting sunset on fire
We only do this cause it hurts


Pre-Chorus
E|--------------------------------------------------|
B|--------------------------------------------------|
G|--3-3-3-3-3-3-3-3-3/5-5-5-5-5-5-5-----------------|
D|--3-3-3-3-3-3-3-3-3/5-5-5-5-5-5-5-3-3-3-3-3-3-3-3-|
A|--1-1-1-1-1-1-1-1-1/3-3-3-3-3-3-3-3-3-3-3-3-3-3-3-|
D|----------------------------------3-3-3-3-3-3-3-3-|

E|--------------------------------------------------------------|
B|--------------------------------------------------------------|
G|--------------------------------------------------------------|
D|--5-5-5-5-5-5-5-5-8-8-8-8-8-8-8-8-8-8-8-8-8-8-8-8-------------|
A|--5-5-5-5-5-5-5-5-8-8-8-8-8-8-8-8-8-8-8-8-8-8-8-8-------------|
D|--5-5-5-5-5-5-5-5-8-8-8-8-8-8-8-8-8-8-8-8-8-8-8-8-------------|

E|-----------------------------------------------|
B|-----------------------------------------------|
G|-----------------------------------------------|
D|--10-10-10-10-10-10-10-10-10\------------------|
A|--10-10-10-10-10-10-10-10-10\------------------|
D|--10-10-10-10-10-10-10-10-10\------------------|
W/ lyrics
So sit back, waste your life away
Well I want to hear you say...

Chorus
E|--------------------------------------------------------------|
B|--------------------------------------------------------------|
G|--------------------------------3--5.-6.-5.-6.----------------|
D|-/5-5-5-5-5-5-5-5/8-8-8-8-8-8-8-3--5.-6.-5.-6.-----3----------|
A|-/5-5-5-5-5-5-5-5/8-8-8-8-8-8-8-1--3.-3.-3.-3.-3h5------------|
D|-/5-5-5-5-5-5-5-5/8-8-8-8-8-8-8----------------------3--------|

E|--------------------------------------------------------------|
B|--------------------------------------------------------------|
G|--------------------------------------------------------------|
D|--5--5-5-5-5-5-5/8--8-8-8-8-8-3-3-3-3-3-3-3-3-3-3-3-10-8------|
A|--5--5-5-5-5-5-5/8--8-8-8-8-8-3-3-3-3-3-3-3-3-3-3-3-10-8------|
D|--5--5-5-5-5-5-5/8--8-8-8-8-8-3-3-3-3-3-3-3-3-3-3-3-10-8------|

E|--------------------------------------------------------------|
B|--------------------------------------------------------------|
G|--------------------------------3--5.-6.-5.-6.----------------|
D|--5-5-5-5-5-5-5-5/8-8-8-8-8-8-8-3--5.-6.-5.-6.-----3----------|
A|--5-5-5-5-5-5-5-5/8-8-8-8-8-8-8-1--3.-3.-3.-3.-3h5------------|
D|--5-5-5-5-5-5-5-5/8-8-8-8-8-8-8----------------------3--------|
Two guitars again:
E|--------------------------------------------------------------|
B|--------------------------------------------------------------|
G|--------------------------------------------------------------|
D|--5--5-5-5-5-5-5/8--8-8-8-8-8-3-3-3-3-3-3-3-3--3--3--4-5------|
A|--5--5-5-5-5-5-5/8--8-8-8-8-8-3-3-3-3-3-3-3-3--3--3--4-5------|
D|--5--5-5-5-5-5-5/8--8-8-8-8-8-3-3-3-3-3-3-3-3--3--3--4-5------|

E|--------------------------------------------------------------|
B|--------------------------------------------------------------|
G|--------------------------------------------------------------|
D|----------------this-is-the-same-except-for-this-part:-5\-----|
A|-------------------------------------------------------5\-----|
D|-------------------------------------------------------5\-----|


E|--------------------------------------------------------------|
B|--------------------------------------------------------------|
G|----------------3.-3.-3.-3-3/5.-6.-5.-6.----------------------|
D|----------------3.-3.-3.-3-3/5.-6.-5.-6.-----3----------------|
A|----------------1.-1.-1.-1-1/3.-3.-3.-3.-3h5------------------|
D|--8p5-8p5-3h4h5--------------------------------3--------------|
                                                                |
E|--------------------------------------------------------------|
B|--------------------------------------------------------------|
G|----------------3.-3.-3.-3-3/5.-6.-5.-6.----------------------|
D|----------------3.-3.-3.-3-3/5.-6.-5.-6.-----3----------------|
A|----------------1.-1.-1.-1-1/3.-3.-3.-3.-3h5------------------|
D|--8p5-8p5-3h4h5--------------------------------3--------------|

W/ lyrics
Hell yeah
Get up, get up, get up, do you believe in
Hollywood restart our revolution
Hell yeah
Get up, get up, get up, and sing it
If rock n' roll is dead, the dead will come undone

E|--------------------------------------------------------------|
B|--------------------------------------------------------------|
G|--------------------------------------------------------------|
D|--5-‘5-5-5-5-5-5-5-5-5-5’-------8-‘8-8-8-8-8-8-8-8-8-8-8’-----|
A|--5-‘5-5-5-5-5-5-5-5-5-5’-------8-‘8-8-8-8-8-8-8-8-8-8-8’-----|
D|--5-‘5-5-5-5-5-5-5-5-5-5’-5-8-5-8-‘8-8-8-8-8-8-8-8-8-8-8’-----|

E|----------------------------------------|
B|----------------------------------------|
G|--------5-‘5-5-5-5-5’---5---------------|
D|--------5-‘5-5-5-5-5’-3-5-5-------------|
A|--1-3-1-3-‘3-3-3-3-3’-3-3-5-------------|
D|----------------------3---5-8p5-8p5-3h5-|x2

W/ lyrics
They say I kiss to kill
I just do it for fun
The stage girls shake to make my heart come undone
Glamour girls and whiskey
And Snow White's already kissed me
The sirens sound, the boys are out, take over this city

Pre-Chorus
E|--------------------------------------------------|
B|--------------------------------------------------|
G|--3-3-3-3-3-3-3-3-3/5-5-5-5-5-5-5-----------------|
D|--3-3-3-3-3-3-3-3-3/5-5-5-5-5-5-5-3-3-3-3-3-3-3-3-|
A|--1-1-1-1-1-1-1-1-1/3-3-3-3-3-3-3-3-3-3-3-3-3-3-3-|
D|----------------------------------3-3-3-3-3-3-3-3-|

E|--------------------------------------------------------------|
B|--------------------------------------------------------------|
G|--------------------------------------------------------------|
D|--5-5-5-5-5-5-5-5-8-8-8-8-8-8-8-8-8-8-8-8-8-8-8-8-------------|
A|--5-5-5-5-5-5-5-5-8-8-8-8-8-8-8-8-8-8-8-8-8-8-8-8-------------|
D|--5-5-5-5-5-5-5-5-8-8-8-8-8-8-8-8-8-8-8-8-8-8-8-8-------------|

E|-----------------------------------------------|
B|-----------------------------------------------|
G|-----------------------------------------------|
D|--10-10-10-10-10-10-10-10-10\------------------|
A|--10-10-10-10-10-10-10-10-10\------------------|
D|--10-10-10-10-10-10-10-10-10\------------------|
W/ lyrics
So get up, dance the night away
Well I want to hear you say…

Chorus
E|--------------------------------------------------------------|
B|--------------------------------------------------------------|
G|--------------------------------3--5.-6.-5.-6.----------------|
D|-/5-5-5-5-5-5-5-5/8-8-8-8-8-8-8-3--5.-6.-5.-6.-----3----------|
A|-/5-5-5-5-5-5-5-5/8-8-8-8-8-8-8-1--3.-3.-3.-3.-3h5------------|
D|-/5-5-5-5-5-5-5-5/8-8-8-8-8-8-8----------------------3--------|

E|--------------------------------------------------------------|
B|--------------------------------------------------------------|
G|--------------------------------------------------------------|
D|--5--5-5-5-5-5-5/8--8-8-8-8-8-3-3-3-3-3-3-3-3-3-3-3-10-8------|
A|--5--5-5-5-5-5-5/8--8-8-8-8-8-3-3-3-3-3-3-3-3-3-3-3-10-8------|
D|--5--5-5-5-5-5-5/8--8-8-8-8-8-3-3-3-3-3-3-3-3-3-3-3-10-8------|

E|--------------------------------------------------------------|
B|--------------------------------------------------------------|
G|--------------------------------3--5.-6.-5.-6.----------------|
D|--5-5-5-5-5-5-5-5/8-8-8-8-8-8-8-3--5.-6.-5.-6.-----3----------|
A|--5-5-5-5-5-5-5-5/8-8-8-8-8-8-8-1--3.-3.-3.-3.-3h5------------|
D|--5-5-5-5-5-5-5-5/8-8-8-8-8-8-8----------------------3--------|

Two guitars again:
E|--------------------------------------------------------------|
B|--------------------------------------------------------------|
G|--------------------------------------------------------------|
D|--5--5-5-5-5-5-5/8--8-8-8-8-8-3-3-3-3-3-3-3-3--3--3--4-5------|
A|--5--5-5-5-5-5-5/8--8-8-8-8-8-3-3-3-3-3-3-3-3--3--3--4-5------|
D|--5--5-5-5-5-5-5/8--8-8-8-8-8-3-3-3-3-3-3-3-3--3--3--4-5------|

E|--------------------------------------------------------------|
B|--------------------------------------------------------------|
G|--------------------------------------------------------------|
D|----------------this-is-the-same-except-for-this-part:-5\-----|
A|-------------------------------------------------------5\-----|
D|-------------------------------------------------------5\-----|


E|--------------------------------------------------------------|
B|--------------------------------------------------------------|
G|----------------3.-3.-3.-3-3/5.-6.-5.-6.----------------------|
D|----------------3.-3.-3.-3-3/5.-6.-5.-6.-----3----------------|
A|----------------1.-1.-1.-1-1/3.-3.-3.-3.-3h5------------------|
D|--8p5-8p5-3h4h5--------------------------------3--------------|
                                                                |
E|--------------------------------------------------------------|
B|--------------------------------------------------------------|
G|----------------3.-3.-3.-3-3/5.-6.-5.-6.----------------------|
D|----------------3.-3.-3.-3-3/5.-6.-5.-6.-----3----------------|
A|----------------1.-1.-1.-1-1/3.-3.-3.-3.-3h5------------------|
D|--8p5-8p5-3h4h5--------------------------------3--------------|

W/ lyrics
Hell yeah
Get up, get up, get up, do you believe in
Hollywood restart our revolution
Hell yeah
Get up, get up, get up, and sing it
If rock n' roll is dead, the dead will come undone

On the second guitar part, just strum the chords indicated until the next one is
Play the chord harder (accent) on the first time you strum it and leave more space after it
the others. Just listen to the song, you’ll get it right. This COULD be wrong… (for the 
guitar)

Guitar Solo:
E|---------------------------------------------------15~--------|
B|---------3----------3-----------------------------------------|
G|--10b----3--5-3-5-5-3--5-3-5-5-‘8p5-8p5-8-3-3-4-5’------------|
D|-------*------------------------------------------------------|
A|--------------------------------------------------------------|
D|--------------------------------------------------------------|

                               |
E|--------------------------------------------------------------|
B|--------------------------------------------------------------|
G|--------------------------------------------------------------|
D|-see----------------------------------------------------------|
A|-bottom-------------------------------------------------------|
D|--------------------------------------------------------------|

E|--------------------------------------------------------------|
B|--------------------------------------------------------------|
G|--12b14-14r12p10-------12b14-14r12p10----13b15-13-13p11-------|
D|-----------------12-12----------------12----------------12~---|
A|--------------------------------------------------------------|
D|--------------------------------------------------------------|

                               |
E|--------------------------------------------------------------|
B|--------------------------------------------------------------|
G|--------------------------------------------------------------|
D|--------------------------------------------------------------|
A|--------------------------------------------------------------|
D|--------------------------------------------------------------|

E|--------------------------------------------------------------|
B|----14p11-14p11-14p11-14p11-14p11-14p11-14p11-14p11-----------|
G|----12-12-12-12-12-12-12-12-12-12-12-12-12-12-12-12-----------|
D|--*-----------------------------------------------------------|
A|--------------------------------------------------------------|
D|--------------------------------------------------------------|

                               |
E|--------------------------------------------------------------|
B|--------------------------------------------------------------|
G|--------------------------------------------------------------|
D|----8-----------------------------------12--------------------|
A|----8-----------------------------------12--------------------|
D|----8-----------------------------------12--------------------|

E|--------------------------------------------------------------|
B|----16p13-16p13-16p13-16p13-16/18-18b20r----------------------|
G|----14-14-14-14-14-14-14-14-----------------------------------|
D|---------------------------------------^----------------------|
A|-----------------------------keep-picking-during-release------|
D|--------------------------------------------------------------|

                               |
E|--------------------------|-----------------------------------|
B|--------------------------S-----------------------------------|
G|--------------------------T-----------------------------------|
D|----10--------------------O-----------------------------------|
A|----10--------------------P-----------------------------------|
D|----10--------------------|-----------------------------------|

Interlude thingy:
No second guitar here
E|--------------------------------------------------------------|
B|--18-hold…--18-18-18-18-18--------18b20-----------------------|
G|------------------------------------^-------------------------|
D|------------------^-------------keep picking during bend------|
A|-------keep-picking-then-hold---------------------------------|
D|--------------------------------------------------------------|

W/ lyrics

Hell yeah
Get up, get up, get up, do you believe in
Hell yeah
Get up, get up, get up, get up


End Chorus:

E|--------------------------------------------------------------|
B|--------------------------------------------------------------|
G|--------------------------------------------------------------|
D|-5--5-7p5-8p5-5-5--5-7p5-8p5-5-5—7p5-8p5-7p5-8p5-7p5-8p5------|
A|--------------------------------------------------------------|
D|--------------------------------------------------------------|

                               |
E|--------------------------------------------------------------|
B|--------------------------------------------------------------|
G|-----------------------------------3--5.-6.-5.-6.-------------|
D|----/5-5-5-5-5-5-5-5/8-8-8-8-8-8-8-3--5.-6.-5.-6.-----3-------|
A|----/5-5-5-5-5-5-5-5/8-8-8-8-8-8-8-1--3.-3.-3.-3.-3h5---------|
D|----/5-5-5-5-5-5-5-5/8-8-8-8-8-8-8----------------------3-----|

E|--------------------------------------------------------------|
B|--------------------------------------------------------------|
G|-----------------------------------------------------7~~------|
D|-5--5-7p5-8p5-5-5--5-7p5-8p5-5-5—7p5-8p5-7p5-8p5-7p5----------|
A|--------------------------------------------------------------|
D|--------------------------------------------------------------|

                               |
E|--------------------------------------------------------------|
B|--------------------------------------------------------------|
G|--------------------------------------------------------------|
D|----5--5-5-5-5-5-5/8--8-8-8-8-8-3-3-3-3-3-3-3-3-3-3-3-5-------|
A|----5--5-5-5-5-5-5/8--8-8-8-8-8-3-3-3-3-3-3-3-3-3-3-3-5-------|
D|----5--5-5-5-5-5-5/8--8-8-8-8-8-3-3-3-3-3-3-3-3-3-3-3-5-------|

E|--------------------------------------------------------------|
B|-3--3-5p3-6p3-3-3--3-5p3-6p3-3-3—5p3-6p3-5p3-6p3-5p3-6p3------|
G|--------------------------------------------------------------|
D|--------------------------------------------------------------|
A|--------------------------------------------------------------|
D|--------------------------------------------------------------|

                               |
E|--------------------------------------------------------------|
B|--------------------------------------------------------------|
G|--------------------------------3--5.-6.-5.-6.----------------|
D|--5-5-5-5-5-5-5-5/8-8-8-8-8-8-8-3--5.-6.-5.-6.-----3----------|
A|--5-5-5-5-5-5-5-5/8-8-8-8-8-8-8-1--3.-3.-3.-3.-3h5------------|
D|--5-5-5-5-5-5-5-5/8-8-8-8-8-8-8----------------------3--------|

E|--------------------------------------------------------------|
B|-3--3-5p3-6p3-3-3--3-5p3-6p3-3-3\--------------6--6-7-8\------|
G|--------------------------------------------------------------|
D|--------------------------------------------------------------|
A|--------------------------------------------------------------|
D|--------------------------------------------------------------|

                               |
E|--------------------------------------------------------------|
B|--------------------------------------------------------------|
G|--------------------------------------------------------------|
D|----5--5-5-5-5-5-5/8--8-8-8-8-8-3-3-3-3-3-3-3—-3—-4-—5\-------|
A|----5--5-5-5-5-5-5/8--8-8-8-8-8-3-3-3-3-3-3-3--3--4--5\-------|
D|----5--5-5-5-5-5-5/8--8-8-8-8-8-3-3-3-3-3-3-3--3--4—-5\-------|

E|--------------------------------------------------------------|
B|--------------------------------------------------------------|
G|----------------3.-3.-3.-3--5.-6.-5.-6.-----------------------|
D|----------------3.-3.-3.-3--5.-6.-5.-6.-----3----5\-----------|
A|----------------1.-1.-1.-1--3.-3.-3.-3.-3h5------5\-----------|
D|----------------------------------------------3—-5\-----------|

                               |
E|--------------------------------------------------------------|
B|--------------------------------------------------------------|
G|----------------3.-3.-3.-3--5.-6.-5.-6.-----------------------|
D|----------------3.-3.-3.-3--5.-6.-5.-6.-----3----5\-----------|
A|----------------1.-1.-1.-1--3.-3.-3.-3.-3h5------5\-----------|
D|--8p5-8p5-3h4h5-------------------------------3—-5\-----------|
W/ lyrics:
Hell yeah
Get up, get up, get up, do you believe in
Hollywood restart our revolution
Hell yeah
Get up, get up, get up, and sing it
If rock n' roll is dead, the dead will come undone

     By the way, the difference between the two guitars is that Guitar II has more bass
it and sounds deeper while Guitar I is more of a crunch sound.
            
Submit corrections

comments powered by Disqus
↑ Back to top | Halifax Tabs for Our Revolution. Lyrics for acoustic guitar and electric guitar. Tablatures and chords are parodies/interpretations of the original songs. You may use it for private study, scholarship, research or language learning purposes only