» » »

Halifax, Our Revolution Bass tabs (ver.1)

Artists:  A B C D E F G H I J K L M N O P Q R S T U V W X Y Z # 

Our Revolution Bass tabs (ver.1)

Halifax Tabs
 Rating:
4/5 (4 votes)
Our Revolution lessons Tabs too difficult? Try these video lessons and learn fast
1
                this is for john... pepe


Intro

g|----------------------------------------------|
d|----------------------------------------------|
a|----------------------------------------------|
d|--5--------5--10-10-10-88888888-10------------|

g|----------------------------------------------|
d|----------------------------------------------|
a|----------------------------------------------|
d|--5555555-8-8-8--10-10-10-101010--------------|
                                                                    its ten
g|----------------------------------------------|
d|----------------------------------------------|
a|----------------------------------------------|
d|--555555555-10-10-10-888888-10----------------|

Verse

g|------------------------------------------------------------------|
d|------------------------------------------------------------------|
a|------------------------------------------------333---------------|   x2
d|--555555555555-8888888888888--10101010101010-333---555-555555-----|
                                                                                    ten
Pre Chorus

g|--------------------------------------------------------------------------|
d|--------------------------------------------------------------------------|
a|--------------------------------------------------------------------------|
d|-888888888-10101010101010-33333333333-55555555555-888888888-1010101010----|

 Chorus

g|---------------------------------------------------|
d|---------------------------------------------------|
a|---------------------------------------------------|
d|--5555555555-888888888-10-10-10-10---101010101010--|

g|----------------------------------------------|
d|----------------------------------------------|
a|----------------------------------------------|
d|--5555555555-8888888888-3333333333333---------|

g|---------------------------------------------------|
d|---------------------------------------------------|
a|---------------------------------------------------|
d|--5555555555-888888888-10-10-10-10---101010101010--|

g|----------------------------------------------|
d|----------------------------------------------|
a|----------------------------------------------|
d|--5555555555-8888888888-33333345--------------|


Pre Verse

g|----------------------------------------------|
d|----------------------------------------------|
a|----------------------------------------------|
d|--5--------5--10-10-10-88888888-10------------|

Verse

g|------------------------------------------------------------------|
d|------------------------------------------------------------------|
a|------------------------------------------------333---------------|   x2
d|--555555555555-8888888888888--10101010101010-333---555-555555-----|
                                                                                    ten
Pre Chorus

g|--------------------------------------------------------------------------|
d|--------------------------------------------------------------------------|
a|--------------------------------------------------------------------------|
d|-888888888-10101010101010-33333333333-55555555555-888888888-1010101010----|

 Chorus

g|---------------------------------------------------|
d|---------------------------------------------------|
a|---------------------------------------------------|
d|--5555555555-888888888-10-10-10-10---101010101010--|

g|----------------------------------------------|
d|----------------------------------------------|
a|----------------------------------------------|
d|--5555555555-8888888888-3333333333333---------|

g|---------------------------------------------------|
d|---------------------------------------------------|
a|---------------------------------------------------|
d|--5555555555-888888888-10-10-10-10---101010101010--|

g|----------------------------------------------|
d|----------------------------------------------|
a|----------------------------------------------|
d|--5555555555-8888888888-33333345--------------|

Solo

g|---------------------------------------------------------------------|
d|---------------------------------------------------------------------|
a|---------------------------------------------------------------------|
d|--555555555555555--88888888888888888-1010101010101010101010101010----|

 Chorus

g|---------------------------------------------------|
d|---------------------------------------------------|
a|---------------------------------------------------|
d|--5555555555-888888888-10-10-10-10---101010101010--|

g|----------------------------------------------|
d|----------------------------------------------|
a|----------------------------------------------|
d|--5555555555-8888888888-3333333333333---------|

g|---------------------------------------------------|
d|---------------------------------------------------|
a|---------------------------------------------------|
d|--5555555555-888888888-10-10-10-10---101010101010--|

g|----------------------------------------------|
d|----------------------------------------------|
a|----------------------------------------------|
d|--5555555555-8888888888-33333345--------------|

g|----------------------------------------------|
d|----------------------------------------------|
a|----------------------------------------------|
d|--555555555-10-10-10-888888-10----------------|
            
Submit corrections

comments powered by Disqus
↑ Back to top | Halifax Bass for Our Revolution. Lyrics for acoustic guitar and electric guitar. 1 Tablatures and chords are parodies/interpretations of the original songs. You may use it for private study, scholarship, research or language learning purposes only