» » »

Hale, Hide And Seek Bass tabs (ver.1)

Artists:  A B C D E F G H I J K L M N O P Q R S T U V W X Y Z # 

Hide And Seek Bass tabs (ver.1)

Hale Tabs
Rating:
5/5 (1 vote)
Hard to play? Try these video lessons and learn fast.
                

May bass effects dito si Sheldon tsaka 4 strings lng gngmt ko na bass kaya d ako 100% sure…

Paki rate nlng... tabi, please, opo, thank you
hehe


Intro: (2x)

G---------------------------------------------------------------------------------|
D---------------------------------------------------7-7-9-9-9----------7-7-9-9-9--|
A---------9-9-10-10-10----------9-9-10-10-10--7-7-7--------------7-7-7------------|
E---8-8-8------------------8-8-8--------------------------------------------------|

Verse1: (4x)

G----------------------------------------------------------------|
D----------------------------------------7-9p-----------7-9p-----|
A-----------9-10-----------9-10--0-7-x-7---------0-7-x-7---------|
E---/8-x-8-------0-/8-x-8----------------------------------------|

(Repeat intro)

Verse2: (repeat verse1 3x then...)

G-------------------------------------------------------------------------|
D-------------------------------------------------------------------------|
A-----------9-10-----------9-10--10-10-10-10-10-10-10-10-9-9-9-9-9-9-9-9--|
E---/8-x-8-------0-/8-x-8-------------------------------------------------|

Chorus:

G-------------------------------------------------------------------------------|
D-------------------------------------------------------------------------------|
A--7-7-x-7-7-7------------------------------------------------------------------|
E-----------------8-8-8-8-8-8-8-8-3-3-3-3-3-3-3-3-3-2-2-2-2-2-2-2---------------|

G-------------------------------------------------------------------------------|
D-------------------------------------------------------------------------------|
A--7-7-x-7-7-7------------------------------------------------------------------|
E-----------------8-8-8-8-8-8-8-8-3-3-3-3-3-3-3-3-3-2-2-2-2-2-2-2---------------|

G-------------------------------------------------------------------------------|
D-------------------------------------------------------------------------------|
A--7-7-x-7-7-7------------------------------------------------------------------|
E-----------------8-8-8-8-8-8-8-8-3-3-3-3-3-3-3-3-3-2-2-2-2-2-2-2---------------|

G----------------------------------------------------------------------------|
D----------------------------------------------------------------------------|
A----------------------------------------------------------------------------|
E--8-8-8-8-8-8-8-8-8-8-8-8-8-8-8-8-8-8-8-8-8-8-8-8-/17-17-17-17-17-17-17-17--|

(Repeat intro)

Verse3: (same as verse 1)

(Repeat intro again)

Verse4: (same as verse2)

(Chorus)

Bridge: (solo part)
G--------------------------------------------------------------------
D-------------------------------------------------------------------(2x)
A-----------------------------------3-3-3-3-3-3-3-3-3-3-3-3-3-3-3-3-     
E--3-3-3-3-3-3-3-3-3-3-3-3-3-3-3-3----------------------------------

then..

G---------------------------------------------------------------------------|
D---------------------------------------------------------------------------|
A--7-7-7-7-7-7-7-7-7-7-7-7-7-7-7-7------------------------------------------|
E-----------------------------------8-8-8-8-8-8-8-8-8-8-8-8-8-8-8-8---------|

G----------------------------------------------------------------------------|
D----------------------------------------------------------------------------|
A-----------------------------------3-3-3-3-3-3-3-3-3-3-3-3-3-3-3-3----------|
E--3-3-3-3-3-3-3-3-3-3-3-3-3-3-3-3-------------------------------------------|

(“Drum roll part”)   -pakinggan nyo nlng ung kanta para makuha nyo


G--------------------------------------------------|
D--------------------------------------------------|   (2x)
A---------------------77777777-77777777------------|
E--88888888-88888888-------------------------------|

G---------------------------------------------------------|
D---------------------------------------------------------|
A----------------------------77777-77777-77777-77777------|
E---88888-88888-88888-88888-------------------------------|

G-------------------------------------------------------------------------------------|
D---------------------------------------------------------------------99999999999999--|
A-------------------7-7-7-7-7-7-7-7--8-8-8-8-8-8-8-8-8-8-8-8-8-8-8-8------------------|
E--8-8-8-8-8-8-8-8--------------------------------------------------------------------|

Chorus

Bass Outro Solo: d ako xur d2. sa gitara ko na to kinapa.. la kz ako 6 string eh.hehe

E--------------------------------------------------------------------------14-14-15-15-15--|
B-----------------------------------------------------------------13-13-13-----------------|
G--------------------------------------------------11-11-12-12-12--------------------------|
D-----------------------------------------10-10-10-----------------------------------------|
A---------9-9-10-10-10-------9-9-10-10-10--------------------------------------------------|
E---8-8-8--------------8-8-8---------------------------------------------------------------|
            

comments powered by Disqus
↑ Back to top | Hale Bass for Hide And Seek. Lyrics for acoustic guitar and electric guitar. Tablatures and chords are parodies/interpretations of the original songs. You may use it for private study, scholarship, research or language learning purposes only