» » »

Hail The Villain, Take Back The Fear Tabs (ver.3)

Artists:  A B C D E F G H I J K L M N O P Q R S T U V W X Y Z # 

Take Back The Fear Tabs (ver.3)

Hail The Villain Tabs
Rating:
1/5 (3 votes)
Take Back The Fear lessons Tabs too difficult? Try these video lessons and learn fast
                
Hail The Villain
Take Back the Fear
Tuned drop B (B Gb B E Ab Db)

6/10/10 Made a bunch of changes. Mainly just tabbed it out better.

Note: in the chorus there sounds like there could be another guitar
part but I dont know what he's playing. Some tapping or hammer
pulloff thing.

palm mute: *
harmonics: [fret]


Intro Pt.1 (play twice)
-----------------------------------------------------------------|
-----------------------------------------------------------------|
-----------------------------------------------------------------|
-0-0-2-3-5-2-3--0-0-2-3-5-2-3--0-0-2-3-5-2-3--0-0-2-3---0-0------|
-0-0------------0-0------------0-0------------0-0-------0-0------|
-0-0------------0-0------------0-0------------0-0-------0-0------|

Intro Pt.2
-----------------------------------------------------------------|
-----------------------------------------------------------------|
-----------------------------------------------------------------|
-0-0-2-3-5-2-3--0-0-2-3-5-2-3--0-0-2-3-5-2-3--0-0-2-3-5-2-3------|
-0-0------------0-0------------0-0------------0-0----------------|
-0-0------------0-0------------0-0------------0-0----------------|

Intro Pt.3
-----------------------------------------------------------------|
-----------------------------------------------------------------|
-----*-*-*-*-*------*-*-*-*-*------*-*-*-*-*------*-*------------|
-0-0-2-3-5-2-3--0-0-2-3-5-2-3--0-0-2-3-5-2-3--0-0-2-3---0-0------|
-0-0-2-3-5-2-3--0-0-2-3-5-2-3--0-0-2-3-5-2-3--0-0-2-3---0-0------|
-0-0-2-3-5-2-3--0-0-2-3-5-2-3--0-0-2-3-5-2-3--0-0-2-3---0-0------|

Verse Pt.1
---------------------------------------------------------------|
--3-3--------3-3--------3-3--------3-3-------------------------|
--2-2--------2-2--------2-2--------2-2-------------------------|
--0-0--------0-0--------0-0--------0-0-------------------------|
--0-0--------0-0--------0-0--------0-0-------------------------|
--0-0--------0-0--------0-0--------0-0-------------------------|

Verse Pt.2
-----------------------------------------------------------------|
-----------------------------------------------------------------|
-----------------------------------------------------------------|
-0-0-2-3-5-2-3--0-0-2-3-5-2-3--0-0-2-3-5-2-3--0-0-2-3---0-0------|
-0-0------------0-0------------0-0------------0-0-------0-0------|
-0-0------------0-0------------0-0------------0-0-------0-0------|


Chorus Pt.1 (play 3 times)
--------------------------------------|
--------------------------------------|
-10-10-10-10-10-10-10-10--------------|
-8--8--8--8--8--8--8--8---------------|
-8--8--8--8--8--8--8--8---------------|
-8--8--8--8--8--8--8--8---------------|
Don't want it taken away (don't want anything)...

Chorus Pt.2
--------------------------------------|
--------------------------------------|
-10-10-10-10-12-12-12-12--------------|
-8--8--8--8--10-10-10-10--------------|
-8--8--8--8--10-10-10-10--------------|
-8--8--8--8--10-10-10-10--------------|
Take it away from me, it's all that I believe


Bridge Pt.1 (play 3 times)
----------------------------------------------|
----------------------------------------------|
-10-10-10-10--10-10--9--9---------------------|
-8--8--8--8---0--0---7--7---------------------|
-8--8--8--8---0--0---7--7---------------------|
-8--8--8--8---0--0---7--7---------------------|


Bridge Pt.2
----------------------------------------------|
----------------------------------------------|
-10-10-10-10--12-12-12-12---------------------|
-8--8--8--8---10-10-10-10---------------------|
-8--8--8--8---10-10-10-10---------------------|
-8--8--8--8---10-10-10-10---------------------|

Bridge pt.3 (Quiet part)
------------|
------------|
--[7]-------|
------[7]---|this part is just harmonics on the guitar if you
------------|listen close you can hear where they are played at
------------|
            
Submit corrections

comments powered by Disqus
↑ Back to top | Hail The Villain Tabs for Take Back The Fear. Lyrics for acoustic guitar and electric guitar. Tablatures and chords are parodies/interpretations of the original songs. You may use it for private study, scholarship, research or language learning purposes only