» » »

Hail The Villain, Take Back The Fear Bass tabs (ver.1)

Artists:  A B C D E F G H I J K L M N O P Q R S T U V W X Y Z # 

Take Back The Fear Bass tabs (ver.1)

Hail The Villain Tabs
 Rating:
4.3/5 (6 votes)
Take Back The Fear lessons Tabs too difficult? Try these video lessons and learn fast
                "Take Back The Fear" - Hail The Villain
*********Requires a 5-string Bass**********


Verse I
G--------------------------------------------------------------------|
D--------------------------------------------------------------------|
A--------------------------------------------------------------------| x2
E---------0--------------0--------------0----------------------------|
B-0---2-3---2-3--0---2-3---2-3--0---2-3---2-3--0---2-3-4--0-0--------|

Verse II
G--------------------------------------------------------------------|
D--------------------------------------------------------------------|
A--------------------------------------------------------------------| x4
E---------0--------------0--------------0----------------------------|
B-0---2-3---2-3--0---2-3---2-3--0---2-3---2-3--0---------------------|

Verse I x1
Verse II x2

Chorus
G--------------------------------------------------------------------|
D--------------------------------------------------------------------|
A--------------------------------------------------------------------| x2 
E-333333333333-----333333333333-----333333333333-----333333-555555---|
B--------------0-0--------------0-0--------------0-0-----------------|

Verse I x1
Verse II x1
Chorus x1

Alternate Chorus
G--------------------------------------------------------------|
D--------------------------------------------------------------|
A--------------------------------------------------------------|
E-333333----0--333333-----0--333333----0---333333-555555-------|
B---------0------------0-------------0-------------------------|

Alternate Bridge
G----------------------------------------------|
D----------------------------------------------|
A----------------------------------------------|
E-3r--2-1- 0r------3r--0r----------------------|
B--------------0r----------0r------------------|

Verse I x(1/2)
Chorus x1
Alternate Chorus x2
Verse II x(1/2)
            
Submit corrections

comments powered by Disqus
↑ Back to top | Hail The Villain Bass for Take Back The Fear. Lyrics for acoustic guitar and electric guitar. Tablatures and chords are parodies/interpretations of the original songs. You may use it for private study, scholarship, research or language learning purposes only