» » »

Hail The Villain, Take Back The Fear Bass tabs (ver.2)

Artists:  A B C D E F G H I J K L M N O P Q R S T U V W X Y Z # 

Take Back The Fear Bass tabs (ver.2)

Hail The Villain Tabs
Rating:
5/5 (1 vote)
Take Back The Fear lessons Tabs too difficult? Try these video lessons and learn fast
                I TAKE NO CREDIT FOR THIS!!!!
ALL I DID WAS CONVERT FOR 4 STRING USE!!!!


Verse I
G--------------------------------------------------------------------|
D--------------------------------------------------------------------|
A-----4-5-7-4-5------4-5-7-4-5------4-5-7-4-5------4-5-6-------------| x2
E-7--------------7--------------7--------------7----------7-7--------|


Verse II
G--------------------------------------------------------------------|
D--------------------------------------------------------------------|
A-----4-5-7-4-5------4-5-7-4-5------4-5-7-4-5------------------------| x2
E-7--------------7--------------7--------------7---------------------|

Verse I x1
Verse II x2

Chorus
G--------------------------------------------------------------------|
D--------------------------------------------------------------------|
A--------------2-2--------------2-2--------------2-2-----------------| x2 
E-333333333333-----333333333333-----333333333333-----333333-555555---|


Verse I x1
Verse II x1
Chorus x1

Alternate Chorus
G--------------------------------------------------------------|
D--------------------------------------------------------------|
A---------2------------2-------------2-------------------------|
E-333333----0--333333-----0--333333----0---333333-555555-------|


Alternate Bridge
G----------------------------------------------|
D----------------------------------------------|
A--------------2r----------2r------------------|
E-3r--2-1- 0r------3r--0r----------------------|
            

comments powered by Disqus
↑ Back to top | Hail The Villain Bass for Take Back The Fear. Lyrics for acoustic guitar and electric guitar. Tablatures and chords are parodies/interpretations of the original songs. You may use it for private study, scholarship, research or language learning purposes only