» » »

Wlcome To Paradise Tabs (ver.1)

Artists:  A B C D E F G H I J K L M N O P Q R S T U V W X Y Z # 

Wlcome To Paradise Tabs (ver.1)

Green Day
Rating:
0/5 (0 votes)

Hard to play? Try these video lessons and learn fast.
                ½ step down tuning

intro
--9-99-99--77-7-----------------------------------------------------------------
--9-99-99--77-7--7777---------------------------------------------------------
--7-77-77--55-5--7777---------------------------------------------------------
---------------------5555---------------------------------------------------------

verses (chords)
--9------7----9---7---------------------------------------------------------------
--9------7----9---7-----5-----9--------------------------------------------------
--7------5----7---5-----5-----9--------------------------------------------------
--------------------------3-----7--------------------------------------------------

chorus (chords)
--------2--5----------4--------2--5------4---------------------------------------
--2--5-2--5---2--5--4--2--5-2--5---2--4---------------------------------------
--2--5-0--3---2--5--2--2--5-0--3---2--2---------------------------------------
--0--3---------0--3----- 0--3---------0------------------------------------------

interlude
---------8---------------11------------------10-------------------9--------------
------------7-----------------10---------------------9-----------------8----------
----55------------88-----------------77--------------------66-------------------


end interlude (chords)
---6--9--8-7----------------------------------------------------------------------
---5--8--7-6----------------------------------------------------------------------
---3--6--5-4----------------------------------------------------------------------
            
Hard to play? Try these video lessons and learn fast. | Correct




comments powered by Disqus
↑ Back to top | Tablatures and chords are parodies/interpretations of the original songs. You may use it for private study, scholarship, research or language learning purposes only