» » »

Green Day, Waking Contradiction Tabs (ver.1)

Artists:  A B C D E F G H I J K L M N O P Q R S T U V W X Y Z # 

Waking Contradiction Tabs (ver.1)

Green Day Tabs
Rating:
0/5 (0 votes)
Waking Contradiction lessons Tabs too difficult? Try these video lessons and learn fast
                This is so f***ing easy:

Intro:

--7-7-7-7-7-7-7-7-7-7-7-7-7-7-7-7-7-7-7-7-7-7-7-7-7-7-7-7-7-7-7-7-7-7-7--
--7-7-7-7-7-7-7-7-7-7-7-7-7-7-7-7-7-7-7-7-7-7-7-7-7-7-7-7-7-7-7-7-7-7-7--
--5-5-5-5-5-5-5-5-5-5-5-5-5-5-5-5-5-5-5-5-5-5-5-5-5-5-5-5-5-5-5-5-5-5-5--

Main Riff:

e--------------------------
B--------------------------
G-------7-7----------------
D--7----7-7----5--5---7-7--
A--7----5-5----5--5---7-7--
E--5-----------3--3---5-5--

Riff 2:

e----------------------------------
B----------------------------------
G--7--7----------------------------
D--7--7--5-5-5-5--7-7-7-7-7-7-7-7--
A--5--5--5-5-5-5--7-7-7-7-7-7-7-7--
E--------3-3-3-3--5-5-5-5-5-5-5-5--

Order: 

Intro X 1
Main Riff X 18
Riff 2 X 4
Main Riff X 8
Riff 2 X 8
Main Riff X 4
Main Riff X
            

comments powered by Disqus
↑ Back to top | Green Day Tabs for Waking Contradiction. Lyrics for acoustic guitar and electric guitar. Tablatures and chords are parodies/interpretations of the original songs. You may use it for private study, scholarship, research or language learning purposes only