» » »

Sick Of Me Bass tabs (ver.1)

Artists:  A B C D E F G H I J K L M N O P Q R S T U V W X Y Z # 

Sick Of Me Bass tabs (ver.1)

Green Day
Rating:
0/5 (0 votes)

Hard to play? Try these video lessons and learn fast.
                This is a song off Shenanigans, with a challenging bassline
that is fun to play.  I almost went deaf and my fingers almost
fell off while trying to figure out this one; good luck!

VERSE:
G:-------------------------------------------------------
D:-------------------------------------------------------
A:------------------777----------------------------------X4
E:-3-3-3333-333-35h7---111-33333333----------------------
(play E:-33-55-77 at the end of the 4th time right before the Chorus)

CHORUS:
G:----------------------------------------------------------------
D:------------------------454-----------------------32------------
A:-33333333---------7---5----75-33333333---------7----35-55555555-
E:---------33333333---5-----------------33333333---3--------------

VERSE X4
CHORUS

BRIDGE (1st half):
G:-------------------------------------------------------
D:-3-2---------------------------------------------------
A:----3333333333333--------------------------------------X5
E:-------------------------------------------------------

(2nd Half)
G:-------------------------------------------------------
D:--------------------------32---5-----------------------
A:----------------33----------30-------------------------X3
E:-3-3-3333-333-33--111-3333----3------------------------

G:-------------------------------------------------------
D:-------------------------------------------------------
A:----------------33-------------------------------------
E:-3-3-3333-333-33--111-33-55-77-------------------------

CHORUS
1st Half bridge X5

And that’s it.  Like I said, it’s extremely fun to play. Enjoy!
            
Hard to play? Try these video lessons and learn fast. | Correct




comments powered by Disqus
↑ Back to top | Tablatures and chords are parodies/interpretations of the original songs. You may use it for private study, scholarship, research or language learning purposes only