>
 >
Seventeen

Seventeen Guitar Tabs

Green Day - Seventeen chords, tabs, tablatures, lyrics

Guitar lessons | Add/correct | Request | Top 50 tabs Artists:  A B C D E F G H I J K L M N O P Q R S T U V W X Y Z 0-9

Seventeen Guitar Tabs – Green Day

CD, Sheet music, Poster

Do you like Seventeen? Share with your friends now
Tabs
wowwwww....ok i must have been tripping when i wrote this tab cuz i have the wrong title and HAD the wrong title forever and ever......this song IS actually called coming clean...no wonder i couldn't find it on here i never would have wrote it if i found it already

Tune all strings down 1/2 step!!!! <---- very important
x = mute
\ = slide down

----------------|-------------------------------------------------------------
----------------|-------------------------------------------------------------
--4-------------|----4xx4-x4-4-x4-4-------------------------------------------
--4---------6---|----4xx4-x4-4-x4-4-6xx6-x6-6-x6-6----------------------------
--2---------6---|----2xx2-x2-2-x2-2-6xx6-x6-6-x6-6----------------------------
------------4---|-------------------4xx4-x4-4-x4-4----------------------------
 Intro             Verse - repeat as necessary                                

-4-44444444444444-2-22222222222222-4-44444444444444-2-22222222222222----------
-4-44444444444444-2-22222222222222-4-44444444444444-2-22222222222222----------
-2-22222222222222-0-00000000000000-2-22222222222222-0-00000000000000----------
 Chorus                                                                       

-8-8-10-8---8-8-8-10-8---10---12---13-12-12-12-12-13-12-13-15---12-12-10--12--10
 Solo                                                                         

-12---8---10---12---13-12-12-12-12-13-12\10-10\8-7-7-7-8-10-8-7-8-7-8----8-7-7
 Solo                                                                         

-7-8-10-8-7-8-7-8-------------------------------------------------------------
 Solo                                                                         

---------4-----4--------------------------------------------------------------
-2-2-2-2-2-----2--------------------------------------------------------------
-2-2-2-2-2-----2--------------------------------------------------------------
-0-0-0-0----------------------------------------------------------------------
 Cota       

Intro
Verse
Chorus 
Verse x2
Chorus
Solo
Verse x2
Chorus
Cota





Comments


Popular Green Day tabs & chords
Burnout 2 Bass Tabs
Carpe Diem Bass Tabs
Chump Chords
Dry Ice Chords
Brain Stew Tabs
Dirty Rotten Bastards 2 Tabs
Eye Of The Tiger 2 Tabs
Haushinka 2 Tabs
I Want To Be On T.V Tabs
Time Of Your Life Tabs


Song lyrics



↑ Back to top | Tablatures and chords are parodies/interpretations of the original songs. You may use it for private study, scholarship, research or language learning purposes only
© 2014 AZChords.com Contact us | Privacy policy | DMCA | Add/correct tabs | Request tabs | Top 50 tabs