» » »

Redundent Tabs (ver.1)

Artists:  A B C D E F G H I J K L M N O P Q R S T U V W X Y Z # 

Redundent Tabs (ver.1)

Green Day
Rating:
0/5 (0 votes)

Hard to play? Try these video lessons and learn fast.
                Green Day

Intro
|---------------------------------------------------------------
|-----2---------2---------2-------------------------------------
|--------2---------2---------2------------------4-4-4-4-4-4-4-4-
|-----------------------------------4-4-4-4-4-4-4-4-4-4-4-4-4-4-
|-0---------------------------------4-4-4-4-4-4-2-2-2-2-2-2-2-2-
|-----------4---------3---------2---2-2-2-2-2-2----------------- 

|-----------------------------------------------
|-----------------------------------------------
|-7-7-7-7-7-7-7-7-------------------------9--9--
|-7-7-7-7-7-7-7-7-7-7-7-7-7-7-7-7-7-7-7-7-9--9--
|-5-5-5-5-5-5-5-5-7-7-7-7-7-7-7-7-7-7-7-7-7--7--
|-----------------5-5-5-5-5-5-5-5-5-5-5-5------- 
Main Riff
|---------------------------------------------------------------
|---------------------------------------------------------------
|-----------------7-7-7-7-7-7-7-7-------------7-----------------
|-7-7-7-7-7-7-7-7-7-7-7-7-7-7-7-7-7-7-7-7-7-7-7-7-7-7-7-7-7-7-7-
|-7-7-7-7-7-7-7-7-5-5-5-5-5-5-5-5-7-7-7-7-7-7-5-7-7-7-7-7-7-7-7-
|-5-5-5-5-5-5-5-5-----------------5-5-5-5-5-5---5-5-5-5-5-5-5-5-
|---------------------------------------------------------------
|---------------------------------------------------------------
|-----------------7-7-7-7-7-7-7-7------------------------------- 
|-7-7-7-7-7-7-7-7-7-7-7-7-7-7-7-7-2-2-2-2-2-2-2-2-2-2-2-2-5--5--
|-7-7-7-7-7-7-7-7-5-5-5-5-5-5-5-5-2-2-2-2-2-2-2-2-2-2-2-2-5--5--
|-5-5-5-5-5-5-5-5-----------------0-0-0-0-0-0-0-0-0-0-0-0-3--3-- 

Bridge
|---------------------------------------------------------------
|---------------------------------------------------------------
|-----------------7-7-7-7-7-7-7-7-------------7-----------------
|-7-7-7-7-7-7-7-7-7-7-7-7-7-7-7-7-7-7-7-7-7-7-7-7-7-7-7-7-7-7-7-
|-7-7-7-7-7-7-7-7-5-5-5-5-5-5-5-5-7-7-7-7-7-7-5-7-7-7-7-7-7-7-7-
|-5-5-5-5-5-5-5-5-----------------5-5-5-5-5-5---5-5-5-5-5-5-5-5- 
|-------------------------------------------------------------
|-------------------------------------------------------------
|-----------------4-4-4-4-4-4-4-4-----------------------5--5--
|-4-4-4-4-4-4-4-4-4-4-4-4-4-4-4-4-2-2-2-2-2-2-2-2-2-2-2-5--5--
|-4-4-4-4-4-4-4-4-2-2-2-2-2-2-2-2-2-2-2-2-2-2-2-2-2-2-2-3--3--
|-2-2-2-2-2-2-2-2-----------------0-0-0-0-0-0-0-0-0-0-0------- 

This is a prety easy song to play. I’m prety sure its correct. If
            
Hard to play? Try these video lessons and learn fast. | Correct




comments powered by Disqus
↑ Back to top | Tablatures and chords are parodies/interpretations of the original songs. You may use it for private study, scholarship, research or language learning purposes only