>
 >
Paradise

Paradise Bass Tabs

Green Day - Paradise chords, tabs, tablatures, lyrics

Guitar lessons | Add/correct | Request | Top 50 tabs Artists:  A B C D E F G H I J K L M N O P Q R S T U V W X Y Z 0-9

Paradise Bass Tabs – Green Day

CD, Sheet music, Poster

Do you like Paradise? Share with your friends now
Bass Tabs

Riff #1

      E              D        A         
G|-----------------------------------|
D|---------------------7-------------|
A|--5h7---X-7-7--7-0-5---0-0--0-0-0--|
E|-----------------------------------|

Riff #2

    E           D           E
G|---------------------------------------------------|
D|---------------------------------------------------|
A|--7-7-7-7-0-5--5-5-5--5-5-0-7-X-7-7-X-7-(7)-X-7-7--|
E|---------------------------------------------------|
    E               D               G             B                  
G|----------------------------------------------------------------|
D|-------------5-4--------------4-5-------------------------------|
A|--7-0-7--7-7-----0-5--5-5-5-5------------------2--2-2--2-2-2-0--|
E|----------------------------------0-3-3--3-3-3------------------|
    E             D              E
G|-------------------------------------------------------|
D|---------5-4--------------4-5--------------------------|
A|--7--7-7-----0-5--5-5-5-5-----0-7-X-7-7-X-7-(7)-X-7-7--|
E|-------------------------------------------------------|
    E               D               G             B                  
G|-----------------------------------------------------------------|
D|-------------5-4--------------4-5--------------------------------|
A|--7-0-7--7-7-----0-5--5-5-5-5------------------2--2-2--2-2-2-----|
E|----------------------------------0-3-3--3-3-3----------------0--|
    G           B
G|-----------------------4---4---4---4------------|
D|------------------------------------------------|
A|--------------2-2-2-2----2---2---2---2-2-2-2-2--|
E|--3-3--3-3-3------------------------------------|

Riff #3

    Em        G               A           C
G|-------------------------------------------------------|
D|-------------------------------------------------------|
A|----------------------------------------3--3-3--3-3h5--|
E|--0-0--0-0-0-3--3-3--3-3-3-0-5-5--5-5-5----------------|
    Em             G              B   
G|-----------------------------------------------------------|
D|------------------------------------------------4-0-4-4-5--|
A|--------------------------------2-2--2-2-2-2--2------------|
E|-0-0--0--0-0-0-3--3-3-3-3-3-3-0----------------------------|
    Em           G           A           C                     Em          B
G|-------------------------------------------------------| G|-----------------|
D|---------2---------------------------------------------| D|-----------------|
A|----------------------------------------3--3-3--3-3h5--| A|--------------2--|
E|--0-0--0---0-3--3-3--3-3-3-0-5-5--5-5-5----------------| E|--0-0-0-0-0-0----|

Riff #4
                                    
    E         G          F#        F         E
G|----------------------------------------|---------|
D|------9----------9---------8-------8h10-|----7h9--|
A|--7-7----0-10-10----10-9-9----9-8-8-----|-8-7-----|
E|----------------------------------------|---------|

Riff #5

     G          F#       F          E
G|-------------------------------|---------|
D|--------9---------8-------8h10-|----7h9--|
A|--10-10----10-9-9----9-8-8-----|-8-7-----|
E|-------------------------------|---------|

Riff #6

     G          F#       F          E
G|--------------------------------|---------|
D|--------9---------8------8h10-8-|----7h9--|
A|--10-10----10-9-9----9-8--------|-8-7-----|
E|--------------------------------|---------|

Riff #7

     G          F#       F        
G|--------------------------------|
D|--------9---------8-------8h10--|
A|--10-10----10-9-9----9-8-8------|
E|--------------------------------|

Riff #8

      E                              E            D        A                                                                             
G|--------------7h9-7----7----------------------------------------|
D|---------------------9---9--8-7-------------------7-------------|
A|--5h7---X-7-7-------------------10-7-X-7-7--7-0-5---0-0--0-0-0--|
E|----------------------------------------------------------------|
      E              D        A      E   
G|--------------------------------------|
D|---------------------7----------------|
A|--5h7---X-7-7--7-0-5---0-0--0-0-0--7--|
E|--------------------------------------|





Comments


Popular Green Day tabs & chords
Armatage Shanks 6 Bass Tabs
Chump Bass Tabs
Coming Clean 4 Chords
Ha Ha Your Dead Chords
Stuck With Me Chords
86  1 Tabs
All The Time 6 Tabs
Burnout 3 Tabs
Favorite Son 1 Tabs
Going To Pasalacqua 1 Tabs


Song lyrics



↑ Back to top | Tablatures and chords are parodies/interpretations of the original songs. You may use it for private study, scholarship, research or language learning purposes only
© 2014 AZChords.com Contact us | Privacy policy | DMCA | Add/correct tabs | Request tabs | Top 50 tabs