» » »

Green Day, On My Own Here We Go Tabs (ver.1)

Artists:  A B C D E F G H I J K L M N O P Q R S T U V W X Y Z # 

On My Own Here We Go Tabs (ver.1)

Green Day Tabs
 Rating:
4/5 (4 votes)
On My Own Here We Go lessons Tabs too difficult? Try these video lessons and learn fast
1
                Artist-Greenday
Song-Brain Stew
Tablature by Wfos89

this is and easy song and i also think this tab is 100% correct

X-rest fingers on strings and strum

1st verse
e -------------------------------------------
B -------------------------------------------
G -------------------------------------------  play 12 times
D -7-7---5-5---4-4---3-3-2-2-----------------
A -7-7---5-5---4-4---3-3-2-2-----------------
E -5-5---3-3---2-2---1-1-0-0-----------------


Choures

e ----xxxxxxxx---xxxxxxx---xxxxxxx---xx---xx----
B ----xxxxxxxx---xxxxxxx---xxxxxxx---xx---xx----
G ----xxxxxxxx---xxxxxxx---xxxxxxx---xx---xx----  play 2 times
D -7-7xxxxxxxx5-5xxxxxxx4-4xxxxxxx3-3xx2-2xx----  strum HARD on x's
A -7-7xxxxxxxx5-5xxxxxxx4-4xxxxxxx3-3xx2-2xx----
E -5-5xxxxxxxx3-3xxxxxxx2-2xxxxxxx1-1xx0-0xx----

1st verse
e -------------------------------------------
B -------------------------------------------
G -------------------------------------------  play 4 times
D -7-7---5-5---4-4---3-3-2-2-----------------
A -7-7---5-5---4-4---3-3-2-2-----------------
E -5-5---3-3---2-2---1-1-0-0-----------------

Choures

e ----xxxxxxxx---xxxxxxx---xxxxxxx---xx---xx----
B ----xxxxxxxx---xxxxxxx---xxxxxxx---xx---xx----
G ----xxxxxxxx---xxxxxxx---xxxxxxx---xx---xx----  play 2 times
D -7-7xxxxxxxx5-5xxxxxxx4-4xxxxxxx3-3xx2-2xx----  strum Hard on x's
A -7-7xxxxxxxx5-5xxxxxxx4-4xxxxxxx3-3xx2-2xx----
E -5-5xxxxxxxx3-3xxxxxxx2-2xxxxxxx1-1xx0-0xx----

2nd verse
e ----xxx-xx---xxx-xx---xxx-xx----x----x----------------
B ----xxx-xx---xxx-xx---xxx-xx----x----x----------------
G ----xxx-xx---xxx-xx---xxx-xx----x----x----------------  play 4 times
D -7-7xxx-xx5-5xxx-xx4-4xxx-xx3-3-x2-2-x----------------  strum LIGHT on x's
A -7-7xxx-xx5-5xxx-xx4-4xxx-xx3-3-x2-2-x----------------
E -5-5xxx-xx3-3xxx-xx2-2xxx-xx1-1-x0-0-x----------------

2nd verse
e ----xxx-xx---xxx-xx---xxx-xx--S-----x----------------
B ----xxx-xx---xxx-xx---xxx-xx--L-----x----------------
G ----xxx-xx---xxx-xx---xxx-xx--I-----x----------------  On the forth time
D -7-7xxx-xx5-5xxx-xx4-4xxx-xx3-D-2-2-x----------------  Slide down the neck quick
A -7-7xxx-xx5-5xxx-xx4-4xxx-xx3-E-2-2-x----------------  (you might need to listen
E -5-5xxx-xx3-3xxx-xx2-2xxx-xx1-!-0-0-x----------------  V  to the song to find out
                                ^<<<<<<<<<<<<<<<<<<<<<<<<V      what i mean)
Choures

e ----xxxxxxxx---xxxxxxx---xxxxxxx---xx---xx----
B ----xxxxxxxx---xxxxxxx---xxxxxxx---xx---xx----
G ----xxxxxxxx---xxxxxxx---xxxxxxx---xx---xx----  play 2 times
D -7-7xxxxxxxx5-5xxxxxxx4-4xxxxxxx3-3xx2-2xx----  strum Hard on x's
A -7-7xxxxxxxx5-5xxxxxxx4-4xxxxxxx3-3xx2-2xx----
E -5-5xxxxxxxx3-3xxxxxxx2-2xxxxxxx1-1xx0-0xx----

Outro

e ----------------------------------------------
B ----------------------------------------------
G ----------------------------------------------  
D -7-7--7-5-5--5-4-4--4-3-3-2-2-----------------play this 6 times
A -7-7--7-5-5--5-4-4--4-3-3-2-2-----------------
E -5-5--5-3-3--3-2-2--2-1-1-0-0-----------------

finish on this

e -----------
B -----------
G -----------Let it ring
D -7-7-------
A -7-7-------
E -5-5-------
            
Submit corrections

comments powered by Disqus
↑ Back to top | Green Day Tabs for On My Own Here We Go. Lyrics for acoustic guitar and electric guitar. 1 Tablatures and chords are parodies/interpretations of the original songs. You may use it for private study, scholarship, research or language learning purposes only