» » »

Nice Guys Finsh Last Tabs (ver.1)

Artists:  A B C D E F G H I J K L M N O P Q R S T U V W X Y Z # 

Nice Guys Finsh Last Tabs (ver.1)

Green Day
Rating:
0/5 (0 votes)

Hard to play? Try these video lessons and learn fast.
                
Rhy.  Fig 1	(Play 4x)
E ----------------------------------------------|
B ----------------------------------------------|
G -------9--9--9--9--9--------------------------|
D ---7---9--9--9--9--9---7---9--9--9--9--9------|
A ---7---7--7--7--7--7---7---9--9--9--9--9------|
E ---5-------------------5---7--7--7--7--7------|  

Rhy.  Fig 2
E ---------------------------------------------------------------------------------|
B ---------------------------------------------------------------------------------|
G ---------------------------------------------------------------------------------|
D --7------------------------------------------------------------------------------|
A --7----7-7-7-7-7-7-7-7-7-7-7-7---------------------------7-7-7-7-7-7-7-7-7-7-7-7-|
E --5-----------------------------7-7-7-7-7-7-7-7-7-7-7-7--------------------------|
         PM ^   ^   ^   ^   ^   ^   ^   ^   ^   ^   ^   ^   ^   ^   ^   ^   ^   ^
   
Rhy.  Fig 3
E ------------------------------------------------------------------------------|
B ------------------------------------------------------------------------------|
G ----9-9-9-9-9-9-9-9-9-9-9-9---------------------------9-9-9-9-9-9-9-9-9-9-9-9-| D -7--9-9-9-9-9-9-9-9-9-9-9-9--9-9-9-9-9-9-9-9-9-9-9-9--9-9-9-9-9-9-9-9-9-9-9-9-|
A -7--7-7-7-7-7-7-7-7-7-7-7-7--9-9-9-9-9-9-9-9-9-9-9-9--7-7-7-7-7-7-7-7-7-7-7-7-|
E -5---------------------------7-7-7-7-7-7-7-7-7-7-7-7--------------------------|
     PM ^    ^    ^    ^    ^    ^    ^    ^    ^    ^    ^    ^    ^    ^    ^

Rhy.  4	(Play 3x)
E -------------------------------------|
B -------------------------------------|
G -------------------9-9-9-9-9-9-9-9---|
D --7-7-7-7-7-7-7-7--9-9-9-9-9-9-9-9---|
A --7-7-7-7-7-7-7-7--7-7-7-7-7-7-7-7---|
E --5-5-5-5-5-5-5-5--------------------|

Pre-Chorus
E -------------------------------------------------|
B -------------------------------------------------|
G -------------------------------------------------|
D ---7-7-7-7-7-7-7-7-7-7-7-7----9-9-9-9-9-9-9-9----|
A ---7-7-7-7-7-7-7-7-7-7-7-7----9-9-9-9-9-9-9-9----|
E ---5-5-5-5-5-5-5-5-5-5-5-5----7-7-7-7-7-7-7-7----|

Chorus
E ---------------------------------------------------------------------------------|
B ---------------------------------------------------------------------------------|
G -----------2-2-2-2-2-----------2-2-2-2-2-----------2-2-2-2-2---4-4-4-4-4-4-4-4---|
D -2-2-2-2-2-2-2-2-2-2-2-2-2-2-2-2-2-2-2-2-2-2-2-2-2-2-2-2-2-2---4-4-4-4-4-4-4-4---|
A -2-2-2-2-2-0-0-0-0-0-2-2-2-2-2-0-0-0-0-0-2-2-2-2-2-0-0-0-0-0---2-2-2-2-2-2-2-2---|
E -0-0-0-0-0-----------0-0-0-0-0-----------0-0-0-0-0-------------------------------|
            
Hard to play? Try these video lessons and learn fast. | Correct




comments powered by Disqus
↑ Back to top | Tablatures and chords are parodies/interpretations of the original songs. You may use it for private study, scholarship, research or language learning purposes only