» » »

Green Day, Metal Jam Tabs (ver.1)

Artists:  A B C D E F G H I J K L M N O P Q R S T U V W X Y Z # 

Metal Jam Tabs (ver.1)

Green Day Tabs
 Rating:
4/5 (4 votes)
Metal Jam lessons Tabs too difficult? Try these video lessons and learn fast
                
v = vibrator
/ = slide in, right
\ = slide in, left

e-------------------------------------
h-------------------------------------
g-------------------------------------
d-------------------------------------
a-------------------------------------
e---2v-------------------------------- 2x


e-----------------------------------------------------------------
h-----------------------------------------------------------------
g-----------------------------------------------------------------
d---4--/--7-7--/--9-9----12-\-11-/-12-\-11-/-12-\-11----7---99-9--
a---4--/--7-7--/--9-9----12-\-11-/-12-\-11-/-12-\-11----7---99-9--
e---2--/--5-5--/--7-7----10-\-9--/-10-\-9--/-10-\-9-----5---77-7-- 2x

and the you can end so

e--------------------------
h--------------------------
g--------------------------
d---4----------------------
a---4----------------------
e---2----------------------
            
Submit corrections

comments powered by Disqus
↑ Back to top | Green Day Tabs for Metal Jam. Lyrics for acoustic guitar and electric guitar. Tablatures and chords are parodies/interpretations of the original songs. You may use it for private study, scholarship, research or language learning purposes only