» » »

Green Day, Long Veiw Bass tabs (ver.1)

Artists:  A B C D E F G H I J K L M N O P Q R S T U V W X Y Z # 

Long Veiw Bass tabs (ver.1)

Green Day Tabs
Rating:
0/5 (0 votes)
Long Veiw lessons Tabs too difficult? Try these video lessons and learn fast
                i play guitar but when i heard this bass riff i had to tab it
green day 
long veiw 
track 4 (dukie)
i dont now much bass but this sure as hell sounds like the 

h=hamer on
-----------------------------------------------------
-----------------------------------------------------
-----------------------------------------------------
-----99-88-77-6-5------------------------------------
   pm................

-------------------------------------------------------
-------7----------7------------7----------7-6-4-2------
-----h---6-5-3--h---6-5-3--h-----6-5-3-----------------
----0-3--------3-5--------0-3--------------------------

this is the verses the good part i dont now the chorus i can only here the giutar on the chorus sorry
            
Submit corrections

comments powered by Disqus
↑ Back to top | Green Day Bass for Long Veiw. Lyrics for acoustic guitar and electric guitar. Tablatures and chords are parodies/interpretations of the original songs. You may use it for private study, scholarship, research or language learning purposes only