» » »

Green Day, At My Window Bass tabs (ver.1)

Artists:  A B C D E F G H I J K L M N O P Q R S T U V W X Y Z # 

At My Window Bass tabs (ver.1)

Green Day Tabs
Rating:
0/5 (0 votes)
Hard to play? Try these video lessons and learn fast.
                green day
 at my window
 demo from 1988

intro
g---7----7----9-----------
d-55-5-00-0-77-7----------
a----------------55555555-
e-------------------------

verse
g-------------------------------------797-----------
d------5322222--------------55555555-----0----------
a-33333-------05--------7p5----------------55555555-
e---------------55555555----------------------------

chorus
g-------7-------7-------9---------------
d-555555-5000000-0777777-7--353---------
a-------------------------------55555555
e---------------------------------------

interlude
g------2---
d-----0----  gutiar only plays
a----------
e----------

listen to the song and you hear when you should 
play each bit

thanks
            

comments powered by Disqus
↑ Back to top | Green Day Bass for At My Window. Lyrics for acoustic guitar and electric guitar. Tablatures and chords are parodies/interpretations of the original songs. You may use it for private study, scholarship, research or language learning purposes only